Cifra Club

Moth

Audioslave

Cifrado: Principal (guitarra y guitarra eléctrica)
tono: D
Intro (palm mute, slight phaser, reverb)
E|--------------------------------------------------------------------|
B|--------------------------------------------------------------------|
G|--------------------------------------------------------------------|
D|---2--2--2--2-------------------5--5--5--5-----3--3--3--3-----------|
A|---0--0--0--0-----5--5--5--5----3--3--3--3-----1--1--1--1-----------|
D|------------------5--5--5--5----------------------------------------|

E|--------------------------------------------------------------------|
B|--------------------------------------------------------------------|
G|--------------------------------------------------------------------|
D|---2--2--2--2-------------------------------------------------------|
A|---0--0--0--0---5--5--5--5------------------------------------------|
D|----------------5--5--5--5----0-------------------------------------|

Main Riff
E|--------------------------------------------------------------------|
B|--------------------------------------------------------------------|
G|---2-------------2-------------3-------------3----------------------|
D|--------------------------------------------------------------------|
A|-----0--3--5--7----0--3--5--7----0--3--5--7----0--3--5--7-----------|
D|-----0--3--5--7----0--3--5--7----0--3--5--7----0--3--5--7-----------|

E|--------------------------------------------------------------------|
B|--------------------------------------------------------------------|
G|-------------------------------2-------------2----------------------|
D|---5-------------5--------------------------------------------------|
A|-----0--3--5--3----0--3--5--3----0--3--5--7----0--3--5--7-----------|
D|-----0--3--5--3----0--3--5--3----0--3--5--7----0--3--5--7-----------|

E|--------------------------------------------------------------------|
B|--------------------------------------------------------------------|
G|---2-------------2-------------3-------------3----------------------|
D|--------------------------------------------------------------------|
A|-----0--3--5--7----0--3--5--7----0--3--5--7----0--3--5--7-----------|
D|-----0--3--5--7----0--3--5--7----0--3--5--7----0--3--5--7-----------|

E|--------------------------------------------------------------------|
B|--------------------------------------------------------------------|
G|---5-------------5-------------7-------------7~~--------------------|
D|--------------------------------------------------------------------|
A|-----0--3--5--7----0--3--5--7----0--3--5--7-------------------------|
D|-----0--3--5--7----0--3--5--7----0--3--5--7-------------------------|

Verse
E|-----------------------------|--------------------------------------|
B|-----------------------------|--------------------------------------|
G|-----------------------------|--------------------------------------|
D|----3------2-------------5---|----3------2-------------7------------|
A|----1------0------5------3---|----1------0------5------5------------|
D|------------------5----------|------------------5------0------------|

Bridge
E|--------------------------------------------------------------------|
B|--------------------------------------------------------------------|
G|--------------------------------------------------------------------|
D|--------------------------------------------------------------------|
A|---------------------0--3^p----0--3^p----0--3h5---------------------|
D|----5---7---0-------------------------------------------------------|

E|--------------------------------------------------------------------|
B|--------------------------------------------------------------------|
G|--------------------------------------------------------------------|
D|--------------------------------------------------------------------|
A|-------5-------------------------0--3^p----0--3^p----0--3h5----/12\-|
D|----7-----7---5---7---0----------------------------------------/12\-|

Main Riff / Chorus
E|--------------------------------------------------------------------|
B|--------------------------------------------------------------------|
G|---2-------------2-------------3-------------3----------------------|
D|--------------------------------------------------------------------|
A|-----0--3--5--7----0--3--5--7----0--3--5--7----0--3--5--7-----------|
D|-----0--3--5--7----0--3--5--7----0--3--5--7----0--3--5--7-----------|

E|--------------------------------------------------------------------|
B|--------------------------------------------------------------------|
G|-------------------------------2-------------2----------------------|
D|---5-------------5--------------------------------------------------|
A|-----0--3--5--3----0--3--5--3----0--3--5--7----0--3--5--7-----------|
D|-----0--3--5--3----0--3--5--3----0--3--5--7----0--3--5--7-----------|

E|--------------------------------------------------------------------|
B|--------------------------------------------------------------------|
G|---2-------------2-------------3-------------3----------------------|
D|--------------------------------------------------------------------|
A|-----0--3--5--7----0--3--5--7----0--3--5--7----0--3--5--7-----------|
D|-----0--3--5--7----0--3--5--7----0--3--5--7----0--3--5--7-----------|

E|--------------------------------------------------------------------|
B|--------------------------------------------------------------------|
G|---5-------------5-------------7-------------7~~--------------------|
D|--------------------------------------------------------------------|
A|-----0--3--5--7----0--3--5--7----0--3--5--7-------------------------|
D|-----0--3--5--7----0--3--5--7----0--3--5--7-------------------------|

Verse
E|-----------------------------|--------------------------------------|
B|-----------------------------|--------------------------------------|
G|-----------------------------|--------------------------------------|
D|----3------2-------------5---|----3------2-------------7------------|
A|----1------0------5------3---|----1------0------5------5------------|
D|------------------5----------|------------------5------0------------|

Bridge
E|--------------------------------------------------------------------|
B|--------------------------------------------------------------------|
G|--------------------------------------------------------------------|
D|--------------------------------------------------------------------|
A|---------------------0--3^p----0--3^p----0--3h5---------------------|
D|----5---7---0-------------------------------------------------------|

E|--------------------------------------------------------------------|
B|--------------------------------------------------------------------|
G|--------------------------------------------------------------------|
D|--------------------------------------------------------------------|
A|-------5-------------------------0--3^p----0--3^p----0--3h5----/12\-|
D|----7-----7---5---7---0----------------------------------------/12\-|

Main Riff / Chorus
E|--------------------------------------------------------------------|
B|--------------------------------------------------------------------|
G|---2-------------2-------------3-------------3----------------------|
D|--------------------------------------------------------------------|
A|-----0--3--5--7----0--3--5--7----0--3--5--7----0--3--5--7-----------|
D|-----0--3--5--7----0--3--5--7----0--3--5--7----0--3--5--7-----------|

E|--------------------------------------------------------------------|
B|--------------------------------------------------------------------|
G|-------------------------------2-------------2----------------------|
D|---5-------------5--------------------------------------------------|
A|-----0--3--5--3----0--3--5--3----0--3--5--7----0--3--5--7-----------|
D|-----0--3--5--3----0--3--5--3----0--3--5--7----0--3--5--7-----------|

E|--------------------------------------------------------------------|
B|--------------------------------------------------------------------|
G|---2-------------2-------------3-------------3----------------------|
D|--------------------------------------------------------------------|
A|-----0--3--5--7----0--3--5--7----0--3--5--7----0--3--5--7-----------|
D|-----0--3--5--7----0--3--5--7----0--3--5--7----0--3--5--7-----------|

E|--------------------------------------------------------------------|
B|--------------------------------------------------------------------|
G|---5-------------5-------------7-------------7~~--------------------|
D|--------------------------------------------------------------------|
A|-----0--3--5--7----0--3--5--7----0--3--5--7-------------------------|
D|-----0--3--5--7----0--3--5--7----0--3--5--7-------------------------|

 
Fill x 2
E|--------------------------------------------------------------------|
B|--------------------------------------------------------------------|
G|--------------------------------------------------------------------|
D|----/10---7---7\5/7-----------5---2---------------------------------|
A|----/8----5---5\3/5-----------3---0-------3h5---3-------------------|
D|---------------------0-----0----------0---3h5---3----0--------------|

InterludE|- Played over the verse riff
E|------------------------10------------------------------------------|
B|---11~---10~----13-11-------10~~------------------------------------|
G|------------------------------------repeat--------------------------|
D|--------------------------------------------------------------------|
A|--------------------------------------------------------------------|
D|--------------------------------------------------------------------|

Main Riff / Chorus
E|--------------------------------------------------------------------|
B|--------------------------------------------------------------------|
G|---2-------------2-------------3-------------3----------------------|
D|--------------------------------------------------------------------|
A|-----0--3--5--7----0--3--5--7----0--3--5--7----0--3--5--7-----------|
D|-----0--3--5--7----0--3--5--7----0--3--5--7----0--3--5--7-----------|

E|--------------------------------------------------------------------|
B|--------------------------------------------------------------------|
G|-------------------------------2-------------2----------------------|
D|---5-------------5--------------------------------------------------|
A|-----0--3--5--3----0--3--5--3----0--3--5--7----0--3--5--7-----------|
D|-----0--3--5--3----0--3--5--3----0--3--5--7----0--3--5--7-----------|

E|--------------------------------------------------------------------|
B|--------------------------------------------------------------------|
G|---2-------------2-------------3-------------3----------------------|
D|--------------------------------------------------------------------|
A|-----0--3--5--7----0--3--5--7----0--3--5--7----0--3--5--7-----------|
D|-----0--3--5--7----0--3--5--7----0--3--5--7----0--3--5--7-----------|

E|--------------------------------------------------------------------|
B|--------------------------------------------------------------------|
G|---5-------------5-------------7-------------7~~--------------------|
D|--------------------------------------------------------------------|
A|-----0--3--5--7----0--3--5--7----0--3--5--7-------------------------|
D|-----0--3--5--7----0--3--5--7----0--3--5--7-------------------------|

Outro
E|--------------------------------------------------------------------|
B|--------------------------------------------------------------------|
G|--------------------------------------------------------------------|
D|----/10---7---7\5/7-----------5---2---------------------------------|
A|----/8----5---5\3/5-----------3---0-------3h5---3-------------------|
D|---------------------0-----0----------0---3h5---3----0--------------|

Essa é pra minha namorada Edilaine !!!!
Valew
00:00 / 00:00
Otros videos de esta canción
Repetir
Otros videos de esta canción
Composición de Audioslave / Chris Cornell
Colaboración y revisión:
  • José Silva
245 vistas
    • ½ Tono
    • A
    • Bb
    • B
    • C
    • Db
    • D
    • Eb
    • E
    • F
    • F#
    • G
    • Ab
  • Agregar a la lista

    0 comentarios

    Ver todos los comentarios
    00:00 / 00:00
    OK