Cifra Club

One And The Same

Audioslave

Cifrado: Principal (guitarra y guitarra eléctrica)
tono: D
Intro:
E|--------------------------------------------------------|
B|--------------------------------------------------------|
G|--------16----16----xxx----16----16----16----xxx--------|
D|--------x-----x-----xxx----x-----x-----x-----xxx--------|
A|--------14----14----xxx----14----14----14----xxx--------|
E|--------------------------------------------------------|
          +  -   +  -  +  -  +  -  +  -  +  -   +

E|--------------------------------------------------------|
B|--------------------------------------------------------|
G|--16----16----16----xxx----16----16----16----xxx--------|
D|--x-----x-----x-----xxx----x-----x-----x-----xxx--------|
A|--14----14----14----xxx----14----14----14----xxx--------|
E|--------------------------------------------------------|
    +  -  +  -   +  -  +  -  +  -  +  -  +  -   +

E|--------|
B|--------|
G|--16----|
D|--x-----|
A|--14----|
E|--------|
    +  -  

E|--------------------------------------------------------|
B|--------------------------------------------------------|
G|--------7v----------------------------------------------|
D|------9----9-7-9--9-9-7---7v----------------------------|
A|------------------------9-----9-7-9--7\5-7p5------------|
E|--7-7----------------------------------------7p5--------|

E|--------------------------------------------------------|
B|--------------------------------------------------------|
G|--------7v----------------------------------------------|
D|------9----9-7-9--9-9-7---7v----------------------------|
A|------------------------9-----9-7-9--7\5-7p5------------|
E|--7-7----------------------------------------7p5--------|

E|--------------------------------------------------------|
B|--------------------------------------------------------|
G|--------7v----------------------------------------------|
D|------9----9-7-9--9-9-7---7v----------------------------|
A|------------------------9-----9-7-9--7\5-7p5------------|
E|--7-7----------------------------------------7p5--------|

E|--------------------------------------------------------|
B|--------------------------------------------------------|
G|--------7v----------------------------------------------|
D|------9----9-7-9--9-9-7---7v----------------------------|
A|------------------------9-----9-7-9--7\5-7p5------------|
E|--7-7---------------------------------------------------|

Primeira Parte:
E|--------------------------------------------------------|
B|--------------------------------------------------------|
G|--------------------------------------------------------|
D|--------------------------------------------------------|
A|---9--x-7/9--x9x9\7--9--x-7/9--x9x9\7-------------------|
E|---7--x-5/7--x7x7\5--7--x-5/7--x7x7\5-------------------|

E|--------------------------------------------------------|
B|--------------------------------------------------------|
G|--------------------------------------------------------|
D|--------------------------7-7-----7-7-----7v------------|
A|---9--x-7/9--x9x9\7---7h9-----7h9-----7h9---------------|
E|---7--x-5/7--x7x7\5-------------------------------------|

E|--------------------------------------------------------|
B|--------------------------------------------------------|
G|--------------------------------------------------------|
D|--------------------------------------------------------|
A|---9--x-7/9--x9x9\7--9--x-7/9--x9x9\7-------------------|
E|---7--x-5/7--x7x7\5--7--x-5/7--x7x7\5-------------------|

E|--------------------------------------------------------|
B|--------------------------------------------------------|
G|--------------------------------------------------------|
D|--------------------------7-7-----7-7-----7v------------|
A|---9--x-7/9--x9x9\7---7h9-----7h9-----7h9---------------|
E|---7--x-5/7--x7x7\5-------------------------------------|

E|--------------------------------------------------------|
B|--------------------------------------------------------|
G|--------------------------------------------------------|
D|--------------------------------------------------------|
A|---9--x-7/9--x9x9\7--9--x-7/9--x9x9\7-------------------|
E|---7--x-5/7--x7x7\5--7--x-5/7--x7x7\5-------------------|

E|--------------------------------------------------------|
B|--------------------------------------------------------|
G|--------------------------------------------------------|
D|--------------------------7-7-----7-7-----7v------------|
A|---9--x-7/9--x9x9\7---7h9-----7h9-----7h9---------------|
E|---7--x-5/7--x7x7\5-------------------------------------|

Refrão:
E|--------------------------------------------------------|
B|--------------------------------------------------------|
G|--------16----16----xxx----16----16----16----xxx--------|
D|--------x-----x-----xxx----x-----x-----x-----xxx--------|
A|--------14----14----xxx----14----14----14----xxx--------|
E|--------------------------------------------------------|
          +  -   +  -  +  -  +  -  +  -  +  -   +

E|--------------------------------------------------------|
B|--------------------------------------------------------|
G|--16----16----16----xxx----16----16----16----xxx--------|
D|--x-----x-----x-----xxx----x-----x-----x-----xxx--------|
A|--14----14----14----xxx----14----14----14----xxx--------|
E|--------------------------------------------------------|
    +  -  +  -   +  -  +  -  +  -  +  -  +  -   +

E|--------------------------------------------------------|
B|--------------------------------------------------------|
G|--16----16----16----xxx----16----16----16----xxx--------|
D|--x-----x-----x-----xxx----x-----x-----x-----xxx--------|
A|--14----14----14----xxx----14----14----14----xxx--------|
E|--------------------------------------------------------|
    +  -  +  -   +  -  +  -  +  -  +  -  +  -   +

E|--------------------------------------------------------|
B|--------------------------------------------------------|
G|--16----16----16----xxx----16----16----16----xxx--------|
D|--x-----x-----x-----xxx----x-----x-----x-----xxx--------|
A|--14----14----14----xxx----14----14----14----xxx--------|
E|--------------------------------------------------------|
    +  -  +  -   +  -  +  -  +  -  +  -  +  -   +

E|--------|
B|--------|
G|--16----|
D|--x-----|
A|--14----|
E|--------|
    +  -  

Interlúdio
E|--------------------------------------------------------|
B|--------------------------------------------------------|
G|--------7v----------------------------------------------|
D|------9----9-7-9--9-9-7---7v----------------------------|
A|------------------------9-----9-7-9--7\5-7p5------------|
E|--7-7----------------------------------------7p5--------|

E|--------------------------------------------------------|
B|--------------------------------------------------------|
G|--------7v----------------------------------------------|
D|------9----9-7-9--9-9-7---7v----------------------------|
A|------------------------9-----9-7-9--7\5-7p5------------|
E|--7-7----------------------------------------7p5--------|

Segunda Parte:
E|--------------------------------------------------------|
B|--------------------------------------------------------|
G|--------------------------------------------------------|
D|--------------------------------------------------------|
A|---9--x-7/9--x9x9\7--9--x-7/9--x9x9\7-------------------|
E|---7--x-5/7--x7x7\5--7--x-5/7--x7x7\5-------------------|

E|--------------------------------------------------------|
B|--------------------------------------------------------|
G|--------------------------------------------------------|
D|--------------------------7-7-----7-7-----7v------------|
A|---9--x-7/9--x9x9\7---7h9-----7h9-----7h9---------------|
E|---7--x-5/7--x7x7\5-------------------------------------|

E|--------------------------------------------------------|
B|--------------------------------------------------------|
G|--------------------------------------------------------|
D|--------------------------------------------------------|
A|---9--x-7/9--x9x9\7--9--x-7/9--x9x9\7-------------------|
E|---7--x-5/7--x7x7\5--7--x-5/7--x7x7\5-------------------|

E|--------------------------------------------------------|
B|--------------------------------------------------------|
G|--------------------------------------------------------|
D|--------------------------7-7-----7-7-----7v------------|
A|---9--x-7/9--x9x9\7---7h9-----7h9-----7h9---------------|
E|---7--x-5/7--x7x7\5-------------------------------------|

E|--------------------------------------------------------|
B|--------------------------------------------------------|
G|--------------------------------------------------------|
D|--------------------------------------------------------|
A|---9--x-7/9--x9x9\7--9--x-7/9--x9x9\7-------------------|
E|---7--x-5/7--x7x7\5--7--x-5/7--x7x7\5-------------------|

E|--------------------------------------------------------|
B|--------------------------------------------------------|
G|--------------------------------------------------------|
D|--------------------------7-7-----7-7-----7v------------|
A|---9--x-7/9--x9x9\7---7h9-----7h9-----7h9---------------|
E|---7--x-5/7--x7x7\5-------------------------------------|

Refrão:
E|--------------------------------------------------------|
B|--------------------------------------------------------|
G|--------16----16----xxx----16----16----16----xxx--------|
D|--------x-----x-----xxx----x-----x-----x-----xxx--------|
A|--------14----14----xxx----14----14----14----xxx--------|
E|--------------------------------------------------------|
          +  -   +  -  +  -  +  -  +  -  +  -   +

E|--------------------------------------------------------|
B|--------------------------------------------------------|
G|--16----16----16----xxx----16----16----16----xxx--------|
D|--x-----x-----x-----xxx----x-----x-----x-----xxx--------|
A|--14----14----14----xxx----14----14----14----xxx--------|
E|--------------------------------------------------------|
    +  -  +  -   +  -  +  -  +  -  +  -  +  -   +

E|--------------------------------------------------------|
B|--------------------------------------------------------|
G|--16----16----16----xxx----16----16----16----xxx--------|
D|--x-----x-----x-----xxx----x-----x-----x-----xxx--------|
A|--14----14----14----xxx----14----14----14----xxx--------|
E|--------------------------------------------------------|
    +  -  +  -   +  -  +  -  +  -  +  -  +  -   +

E|--------------------------------------------------------|
B|--------------------------------------------------------|
G|--16----16----16----xxx----16----16----16----xxx--------|
D|--x-----x-----x-----xxx----x-----x-----x-----xxx--------|
A|--14----14----14----xxx----14----14----14----xxx--------|
E|--------------------------------------------------------|
    +  -  +  -   +  -  +  -  +  -  +  -  +  -   +

E|--------|
B|--------|
G|--16----|
D|--x-----|
A|--14----|
E|--------|
    +  -  

Solo
com tremolopicking

E|--------------------------------------------------------|
B|--------------------------------------------------------|
G|--16--------------16------------------------------------|
D|-----16-12-----------16-12------------------------------|
A|-----------14--------------14---------------------------|
E|--------------------------------------------------------|

E|--------------------------------------------------------|
B|------------------------------------15h17p15------------|
G|--16-18-19-21v-18-19-18-14h16v---16----------16p14------|
D|--------------------------------------------------------|
A|--------------------------------------------------------|
E|--------------------------------------------------------|

E|--------------------------------------------------------|
B|--------------------------------------------------------|
G|-------some false(?) notes that i can't grasp-----------|
D|--------------------------------------------------------|
A|--------------------------------------------------------|
E|--------------------------------------------------------|
               quickly
E|--------------------------------------------------------|
B|-----15------17b19-17b19-15-----------------------------|
G|---16--16p14---------------16p14h16--16p14--------------|
D|--------------------------------------------------------|
A|--------------------------------------------------------|
E|--------------------------------------------------------|

E|--------------------------------------------------------|
B|-----15------17b19-17b19--17-19-15----------------------|
G|---16--16p14-----------------------16-------------------|
D|----------------------------------------14h16-----------|
A|--------------------------------------------------------|
E|--------------------------------------------------------|

E|--14p12p10-----------------14p12p10---------------------|
B|----------14p12p10-----------------14p12p102------------|
G|--------------------------------------------------------|
D|--------------------------------------------------------|
A|--------------------------------------------------------|
E|--------------------------------------------------------|

E|--14p12p10-----------------14p12p10---------------------|
B|----------14p12p10-----------------14p12p10p2------------|
G|--------------------------------------------------------|
D|--------------------------------------------------------|
A|--------------------------------------------------------|
E|--------------------------------------------------------|

E|--14p12p10-----------------14p12p10---------------------|
B|----------14p12p10-----------------14p12p10p2------------|
G|--------------------------------------------------------|
D|--------------------------------------------------------|
A|--------------------------------------------------------|
E|--------------------------------------------------------|

E|--14p12p10-----------------14p12p10---------------------|
B|----------14p12p10-----------------14p12p10p2------------|
G|--------------------------------------------------------|
D|--------------------------------------------------------|
A|--------------------------------------------------------|
E|--------------------------------------------------------|

E|---15p14p12-------------15p14p12------------------------|
B|-----------15p14p12-------------15p14p12----------------|
G|--------------------------------------------------------|
D|--------------------------------------------------------|
A|--------------------------------------------------------|
E|--------------------------------------------------------|

E|---15p14p12-------------15p14p12------------------------|
B|-----------15p14p12-------------15p14p12----------------|
G|--------------------------------------------------------|
D|--------------------------------------------------------|
A|--------------------------------------------------------|
E|--------------------------------------------------------|

E|---15p14p12-------------15p14p12------------------------|
B|-----------15p14p12-------------15p14p12----------------|
G|--------------------------------------------------------|
D|--------------------------------------------------------|
A|--------------------------------------------------------|
E|--------------------------------------------------------|

E|---15p14p12-------------15p14p12------------------------|
B|-----------15p14p12-------------15p14p12----------------|
G|--------------------------------------------------------|
D|--------------------------------------------------------|
A|--------------------------------------------------------|
E|--------------------------------------------------------|

E|--17p15p14--------------17p15p14------------------------|
B|----------17p15p14--------------17p15p14----------------|
G|--------------------------------------------------------|
D|--------------------------------------------------------|
A|--------------------------------------------------------|
E|--------------------------------------------------------|

E|--17p15p14--------------17p15p14------------------------|
B|----------17p15p14--------------17p15p14----------------|
G|--------------------------------------------------------|
D|--------------------------------------------------------|
A|--------------------------------------------------------|
E|--------------------------------------------------------|

E|--17p15p14--------------17p15p14------------------------|
B|----------17p15p14--------------17p15p14----------------|
G|--------------------------------------------------------|
D|--------------------------------------------------------|
A|--------------------------------------------------------|
E|--------------------------------------------------------|

E|--17p15p14--------------17p15p14------------------------|
B|----------17p15p14--------------17p15p14----------------|
G|--------------------------------------------------------|
D|--------------------------------------------------------|
A|--------------------------------------------------------|
E|--------------------------------------------------------|

E|--------------------------------------------------------|
B|--------------------------------------------------------|
G|------some false(?) notes that i can't grasp-----16v----|
D|--------------------------------------------------------|
A|--------------------------------------------------------|
E|--------------------------------------------------------|

E|-------|
B|---xx--|
G|---xx--|
D|---xx--|
A|-------|
E|-------|

Refrão:
E|--------------------------------------------------------|
B|--------------------------------------------------------|
G|--------16----16----xxx----16----16----16----xxx--------|
D|--------x-----x-----xxx----x-----x-----x-----xxx--------|
A|--------14----14----xxx----14----14----14----xxx--------|
E|--------------------------------------------------------|
          +  -   +  -  +  -  +  -  +  -  +  -   +

E|--------------------------------------------------------|
B|--------------------------------------------------------|
G|--16----16----16----xxx----16----16----16----xxx--------|
D|--x-----x-----x-----xxx----x-----x-----x-----xxx--------|
A|--14----14----14----xxx----14----14----14----xxx--------|
E|--------------------------------------------------------|
    +  -  +  -   +  -  +  -  +  -  +  -  +  -   +

E|--------------------------------------------------------|
B|--------------------------------------------------------|
G|--16----16----16----xxx----16----16----16----xxx--------|
D|--x-----x-----x-----xxx----x-----x-----x-----xxx--------|
A|--14----14----14----xxx----14----14----14----xxx--------|
E|--------------------------------------------------------|
    +  -  +  -   +  -  +  -  +  -  +  -  +  -   +

E|--------------------------------------------------------|
B|--------------------------------------------------------|
G|--16----16----16----xxx----16----16----16----xxx--------|
D|--x-----x-----x-----xxx----x-----x-----x-----xxx--------|
A|--14----14----14----xxx----14----14----14----xxx--------|
E|--------------------------------------------------------|
    +  -  +  -   +  -  +  -  +  -  +  -  +  -   +

E|--------|
B|--------|
G|--16----|
D|--x-----|
A|--14----|
E|--------|
    +  -  

Final:
E|--------------------------------------------------------|
B|--------------------------------------------------------|
G|--------7v----------------------------------------------|
D|------9----9-7-9--9-9-7---7v----------------------------|
A|------------------------9-----9-7-9--7\5-7p5------------|
E|--7-7----------------------------------------7p5--------|

E|--------------------------------------------------------|
B|--------------------------------------------------------|
G|--------7v----------------------------------------------|
D|------9----9-7-9--9-9-7---7v----------------------------|
A|------------------------9-----9-7-9--7\5-7p5------------|
E|--7-7----------------------------------------7p5--------|

E|--------------------------------------------------------|
B|--------------------------------------------------------|
G|--------7v----------------------------------------------|
D|------9----9-7-9--9-9-7---7v----------------------------|
A|------------------------9-----9-7-9--7\5-7p5------------|
E|--7-7----------------------------------------7p5--------|

E|--------------------------------------------------------|
B|--------------------------------------------------------|
G|--------7v----------------------------------------------|
D|------9----9-7-9--9-9-7---7v----------------------------|
A|------------------------9-----9-7-9--7\5-7p5------------|
E|--7-7----------------------------------------7p5--------|

E|--end on something like-|
B|------------------------|
G|---14\------------------|
D|---16\------------------|
A|---14\------------------|
E|------------------------|
00:00 / 00:00
Otros videos de esta canción
Repetir
Otros videos de esta canción
Composición de Audioslave / Chris Cornell
Colaboración y revisión:
  • Lucas Kappaun
19 vistas
    • ½ Tono
    • A
    • Bb
    • B
    • C
    • Db
    • D
    • Eb
    • E
    • F
    • F#
    • G
    • Ab
  • Agregar a la lista

    0 comentarios

    Ver todos los comentarios

    ¿Lograste tocar?

    0 Tocaron 0 Aún no

    ¡Graba un video tocando One And The Same y envíanoslo!

    00:00 / 00:00
    OK