Cifra Club

Original Fire

Audioslave

Cifrado: Principal (guitarra y guitarra eléctrica)
Selo Cifra Club: esta cifra foi revisada para atender aos critérios oficiais da nossa Equipe de Qualidade.
tono: Em
[Intro]

E|----------------------------------------------------|
B|-5-5-5-5-5-5-5-5-5--5-5-5-5-5-5-5-5-----------------|
G|-7-7-7-7-7-7-7-7-7--6-6-6-6-6-6-6-6-----------------|
D|----------------------------------------------------|
A|----------------------------------------------------|
E|----------------------------------------------------|

E|----------------------------------------------------|
B|--5-5-5-5-5-5-5-5-5--5-5-5-5-5-5-5-5----------------|
G|--5-5-5-5-5-5-5-5-5--4-4-4-4-4-4-4-4----------------|
D|----------------------------------------------------|
A|----------------------------------------------------|
E|----------------------------------------------------|

E|----------------------------------------------------|
B|-5-5-5-5-5-5-5-5-5--5-5-5-5-5-5-5-5-----------------|
G|-7-7-7-7-7-7-7-7-7--6-6-6-6-6-6-6-6-----------------|
D|----------------------------------------------------|
A|----------------------------------------------------|
E|----------------------------------------------------|

E|----------------------------------------------------|
B|--5-5-5-5-5-5-5-5-5--5-5-5-5------------------------|
G|--5-5-5-5-5-5-5-5-5--4-4-4-4-4----------------------|
D|----------------------------------------------------|
A|---------------------------------------2------------|
E|-----------------------------------------3b---------|

The original fire has died and gone
But the riot inside moves on
The original fire has died and gone
But the riot inside moves on

[Primeira Parte]

E|----------------------------------------------------|
B|----------------------------------------------------|
G|----------------------------------------------------|
D|-2----------2----------2----------2----------2------|
A|-2----------2----------2----------2----------2------|
E|-0-------3b-0-------3b-0-------3b-0-------3b-0------|

With a pen in one hand
Taking a stand, drugged on kerosene
84 And 5 would find us something to believe

[Segunda Parte]

E|----------------------------------------------------|
B|----------------------------------------------------|
G|----------------------------------------------------|
D|----------------------------------2-----------------| (4x)
A|-x-x-x-x-x-x-x-x-x-x-x-x-x-x------2-----------------|
E|-x-x-x-x-x-x-x-x-x-x-x-x-x-x--3b--0-----------------|

E|----------------------------------------------------|
B|----------------------------------------------------|
G|----------------------------------------------------|
D|------------------------------------2---------------|
A|-x-x-x-x-x-x-x-x-x-x-x-x-x-x--2-----2---------------|
E|-x-x-x-x-x-x-x-x-x-x-x-x-x-x----3b--0---------------|

Right or wrong with dirty hands on wires
Singing songs in dischord choirs
Screaming in braille, no temptress prize
Could ever yield anything so real

[Refrão]

E|----------------------------------------------------|
B|----------------------------------------------------|
G|----------------------------------------------------|
D|------2---X-2-2--X-2-2--X-2-2-----------------------|
A|------2---X-2-2--X-2-2--X-2-2-----------------------|
E|------0---X-0-0--X-0-0--X-0-0-3b--------------------|

E|----------------------------------------------------|
B|----------------------------------------------------|
G|----------------------------------------------------|
D|------2---x-2-2--x--2-2--2--------------------------|
A|------2---x-2-2--x--2-2--2--2-----------------------|
E|------0---x-0-0--x--0-0--0----3b--------------------|

E|----------------------------------------------------|
B|----------------------------------------------------|
G|----------------------------------------------------|
D|------2---X-2-2--X-2-2--X-2-2-----------------------|
A|------2---X-2-2--X-2-2--X-2-2-----------------------|
E|------0---X-0-0--X-0-0--X-0-0-3b--------------------|

E|----------------------------------------------------|
B|----------------------------------------------------|
G|----------------------------------------------------|
D|------2---x-2-2--x--2-2--2--------------------------|
A|------2---x-2-2--x--2-2--2--2-----------------------|
E|------0---x-0-0--x--0-0--0----3b--------------------|

The original fire has died and gone
But the riot inside moves on

E|----------------------------------------------------|
B|----------------------------------------------------|
G|----------------------------------------------------|
D|-2-x-x-x-x-x-x-x-x-x--------------------------------|
A|-2-x-x-x-x-x-x-x-x-x--------------------------------|
E|-0-x-x-x-x-x-x-x-x-x----b3--------------------------|

[Terceira Parte]

E|----------------------------------------------------|
B|----------------------------------------------------|
G|----------------------------------------------------|
D|-2----------2----------2----------2----------2------|
A|-2----------2----------2----------2----------2------|
E|-0-------3b-0-------3b-0-------3b-0-------3b-0------|

Golden soldiers born much older than they'll ever live to be
Diving into a sea of hands in a long forgotten city

[Quarta Parte]

E|----------------------------------------------------|
B|----------------------------------------------------|
G|----------------------------------------------------|
D|----------------------------------2-----------------| (4x)
A|-x-x-x-x-x-x-x-x-x-x-x-x-x-x------2-----------------|
E|-x-x-x-x-x-x-x-x-x-x-x-x-x-x--3b--0-----------------|

E|----------------------------------------------------|
B|----------------------------------------------------|
G|----------------------------------------------------|
D|------------------------------------2---------------|
A|-x-x-x-x-x-x-x-x-x-x-x-x-x-x--2-----2---------------|
E|-x-x-x-x-x-x-x-x-x-x-x-x-x-x----3b--0---------------|

Here the rain falls ever after
The swinging vines hang dead in rafters
Blood rush to your head induces laughter endlessly

[Refrão]

The original fire has died and gone
But the riot inside moves on
The original fire has died and gone
But the riot inside moves on

[Ponte]

E|---------------------------------------------------|
B|---------------------------------------------------|
G|---------------------------------------------------|
D|---------------------------------------------------|
A|---------0-----------0------2--5-------2--5--------|
E|---0--3--------0--3---------------0----------0-----|

Can't explain that it was somethin' to see
Can't contain so somethin' ever real
Ever real

[Solo] E5

[Ponte]

Can't explain that it was somethin' to see
Can't contain so somethin' ever real
Ever real

[Refrão]

The original fire has died and gone
But the riot inside moves on
The original fire has died and gone
But the riot inside moves on

The original fire has died and gone
But the riot inside moves on
The original fire has died and gone
But the riot inside moves on
Otros videos de esta canción
    438 exhibiciones
      • ½ Tono
      • Am
      • Bbm
      • Bm
      • Cm
      • C#m
      • Dm
      • Ebm
      • Em
      • Fm
      • F#m
      • Gm
      • G#m
    • Agregar a la lista

    Afinação da cifra

    Afinador online

      Ops (: Contenido disponible solo en portugués.
      OK