Cifra Club

Revelations

Audioslave

Tab de bajo: Versão 2
Selo Cifra Club: esta cifra foi revisada para atender aos critérios oficiais da nossa Equipe de Qualidade.
Tuning: Drop D (D,A,D,G)

Intro
 (0:17)
G|---------------------------------------------------------------------|
D|---------------------------------------------------------------------|
A|---------------3-3-3-3-----------------------------------------------|
D|---0---0---0-----------3---------------------------------------------| (x4)

Verse
 (0:34)
Riff 1
G|---------------------------------------------------------------------|
D|---------------------------------------------------------------------|
A|---3-5-5-3-5---------5-----------------------------------------------|
D|---------------0-0-0----0--------------------------------------------| (x3)

Riff 2
G|---------------------------------------------------------------------|
D|---------------------------------------------------------------------|
A|---3-3-3-3-7-7-7-7---------------------------------------------------|
D|---------------------------------------------------------------------|

Repeat this three times for the verse.
On the third time play Riff 1 four times instead of playing Riff 2.

Chorus
 (0:59)
G|---------------------------------------------------------------------|
D|---------------------------------------------------------------------|
A|---3-3-3-3-7-7-7-7-----------------3-3-3-3-7-7-5-3-------------------|
D|-------------------3-3-3-3-8-8-8-8-----------------------------------|

G|---------------------------------------------------------------------|
D|---------------------------------------------------------------------|
A|---5-5-5-3-5---5-3---------------------------------------------------|
D|-------------0-------------------------------------------------------|

G|---------------------------------------------------------------------|
D|---------------------------------------------------------------------|
A|---3-3-3-3-7-7-7-7-----------------3-3-3-3-7-7-5-3-------------------|
D|-------------------3-3-3-3-8-8-8-8-----------------------------------|

G|---------------------------------------------------------------------|
D|---------------------------------------------------------------------|
A|---5-5-5-3-5---5-----------------------------------------------------|
D|-------------0-------------------------------------------------------| (x3)

Intro

Verse

Chorus 2
 (1:56)
G|---------------------------------------------------------------------|
D|---------------------------------------------------------------------|
A|---3-3-3-3-7-7-7-7-----------------3-3-3-3-7-7-5-3-------------------|
D|-------------------3-3-3-3-8-8-8-8-----------------------------------|

G|---------------------------------------------------------------------|
D|---------------------------------------------------------------------|
A|---5-5-5-3-5---5-3---------------------------------------------------|
D|-------------0-------------------------------------------------------|

G|---------------------------------------------------------------------|
D|---------------------------------------------------------------------|
A|---3-3-3-3-7-7-7-7-----------------3-3-3-3-7-7-5-3-------------------|
D|-------------------3-3-3-3-8-8-8-8-----------------------------------|

G|---------------------------------------------------------------------|
D|---------------------------------------------------------------------|
A|---5-5-5-3-5---5-3---------------------------------------------------|
D|-------------0-------------------------------------------------------|

Solo
 (2:14)
G|---------------------------------------------------------------------|
D|---------------------------------------------------------------------|
A|---3-3-3-3-7-7-7-7-----------------3-3-3-3-7-7-5-3-------------------|
D|-------------------3-3-3-3-8-8-8-8-----------------------------------|

G|---------------------------------------------------------------------|
D|---------------------------------------------------------------------|
A|---5-5-5-3-5---5-3---------------------------------------------------|
D|-------------0-------------------------------------------------------|

G|---------------------------------------------------------------------|
D|---------------------------------------------------------------------|
A|---3-3-3-3-7-7-7-7-----------------3-3-3-3-7-7-5-3-------------------|
D|-------------------3-3-3-3-8-8-8-8-----------------------------------|

G|---------------------------------------------------------------------|
D|---------------------------------------------------------------------|
A|---5-5-5-3-5---5-----------------------------------------------------|
D|-------------0-------------------------------------------------------| (x3)

Bridge
 (2:37)
G|---------------------------------------------------------------------|
D|---------------------------------------------------------------------|
A|---------------------------------------------------------------------|
D|---8-------5-------3-------0-----------------------------------------|

G|---------------------------------------------------------------------|
D|---------------------------------------------------------------------|
A|---------------------------------------------------------------------|
D|---8-------5-------3-------0-----------------------------------------|

G|---------------------------------------------------------------------|
D|---------------------------------------------------------------------|
A|---------------------------------------------------------------------|
D|---8-------5-------3-------0-----------------------------------------|

G|---------------------------------------------------------------------|
D|---------------------------------------------------------------------|
A|---------------------------------------------------------------------|
D|---8-------3-------0-------------------------------------------------|

Pre Chorus?
 (3:11)
G|---------------------------------------------------------------------|
D|---------------------------------------------------------------------|
A|---5-5-5-5-5-5-5-5-5-5-5-5-5-5-5-5-----------------------------------|
D|---------------------------------------------------------------------| (x3)

G|---------------------------------------------------------------------|
D|---------------------------------------------------------------------|
A|---5-5-5-3-5---5-----------------------------------------------------|
D|-------------0---0---------------------------------------------------|

Chorus 3
 (3:28)
G|---------------------------------------------------------------------|
D|---------------------------------------------------------------------|
A|---3-3-3-3-7-7-7-7-----------------3-3-3-3-7-7-5-3-------------------|
D|-------------------3-3-3-3-8-8-8-8-----------------------------------|

G|---------------------------------------------------------------------|
D|---------------------------------------------------------------------|
A|---5-5-5-3-5---5-3---------------------------------------------------|
D|-------------0-------------------------------------------------------|

G|---------------------------------------------------------------------|
D|---------------------------------------------------------------------|
A|---3-3-3-3-7-7-7-7-----------------3-3-3-3-7-7-5-3-------------------|
D|-------------------3-3-3-3-8-8-8-8-----------------------------------|

G|---------------------------------------------------------------------|
D|---------------------------------------------------------------------|
A|---5-5-5-3-5---5-3---------------------------------------------------|
D|-------------0-------------------------------------------------------|

G|---------------------------------------------------------------------|
D|---------------------------------------------------------------------|
A|---3-3-3-3-7-7-7-7-----------------3-3-3-3-7-7-5-3-------------------|
D|-------------------3-3-3-3-8-8-8-8-----------------------------------|

G|---------------------------------------------------------------------|
D|---------------------------------------------------------------------|
A|---5-5-5-3-5---5-----------------------------------------------------|
D|-------------0-------------------------------------------------------| (x4)
Otros videos de esta canción
    11 exhibiciones

    Afinação da cifra

    Afinador online

    Ops (: Contenido disponible solo en portugués.
    OK