Cifra Club

Seven Nation Army

Audioslave

Cifrado: Principal (guitarra y guitarra eléctrica)
Selo Cifra Club: esta cifra foi revisada para atender aos critérios oficiais da nossa Equipe de Qualidade.
tono: G
Introdução e Versos
E|----------------------------------------------------------------------------|
B|----------------------------------------------------------------------------|
G|----------------------------------------------------------------------------|
D|----------------------------------------------------------------------------|
A|--7----7--10--7--5--3----2--------------------------------------------------|
E|----------------------------------------------------------------------------|

 Pré-Refrão:
E|-------------------------------0-0------------------------------------------|
B|-----------------------------0-0-0------------------------------------------|
G|---------------------------0-0-0-0------------------------------------------|
D|-----------------------0-0-0-0-0-0------------------------------------------|
A|--5-5-5-5-5-5-5-5--0-0-0-0-0-0-0-0------------------------------------------|
E|--3-3-3-3-3-3-3-3-----------------------------------------------------------|

 Refrão:
E|----------------------------------------------------------------------------|
B|----------------------------------------------------------------------------|
G|--9----9--/12--9--7--5----4--x--9----9--/12--9--7--5/7-5---4--2-------------|
D|--9----9--/12--9--7--5----4--x--9----9--/12--9--7--5/7-5---4--2-------------|
A|--7----7--/10--7--5--3----2--x--7----7--/10--7--5--3/5-3---2--0-------------|
E|----------------------------------------------------------------------------|

 Toque 2 vezes e depois do refrão
E|-------------------------------0-0------------------------------------------|
B|-----------------------------0-0-0------------------------------------------|
G|---------------------------0-0-0-0------------------------------------------|
D|-----------------------0-0-0-0-0-0------------------------------------------|
A|--5-5-5-5-5-5-5-5--0-0-0-0-0-0-0-0------------------------------------------|
E|--3-3-3-3-3-3-3-3-----------------------------------------------------------|

 Solo:
E|----------------------------------------------------------------------------|
B|----------------------------------------------------------------------------|
G|---------O solo é tocado junto com outra guitarra que toca o refrão---------|
D|----------------------------------------------------------------------------|
A|----------------------------------------------------------------------------|
E|-3-3-3-3-3-3-3-3--5-5-5-5-5-5-5-5-------------------------------------------|

E|----------------------------------------------------------------------------|
B|--------------------------)-------------------------------------------------|
G|--9~-----9~-9~--9~--9/--12-------11~----------------------------------------|
D|----------------------------------------------------------------------------|
A|----------------------------------------------------------------------------|
E|----------------------------------------------------------------------------|

E|----------------------------------------------------------------------------|
B|----------------------------------------------------------------------------|
G|--9~-----9~-12~--14~--12~--12~-12/14~--12~-11~------------------------------|
D|----------------------------------------------------------------------------|
A|----------------------------------------------------------------------------|
E|----------------------------------------------------------------------------|

E|----------------------------------------------------------------------------|
B|--------------------------)-------------------------------------------------|
G|--9~-----9~-9~--9~--9/--12-------11~----------------------------------------|
D|----------------------------------------------------------------------------|
A|----------------------------------------------------------------------------|
E|----------------------------------------------------------------------------|

E|----------------------------------------------------------------------------|
B|----------------------------------------------------------------------------|
G|--9~-----9~-12~--14~--12~--12~-12/14~--12~-11~------------------------------|
D|----------------------------------------------------------------------------|
A|----------------------------------------------------------------------------|
E|----------------------------------------------------------------------------|

                                
E|--12~-----12~-15~--12~--12~--15-------14~-----------------------------------|
B|----------------------------------------------------------------------------|
G|----------------------------------------------------------------------------|
D|----------------------------------------------------------------------------|
A|----------------------------------------------------------------------------|
E|----------------------------------------------------------------------------|

E|--12~-----12~-15~--17~--15~--15~-15/17~--15~-14~----------------------------|
B|----------------------------------------------------------------------------|
G|----------------------------------------------------------------------------|
D|----------------------------------------------------------------------------|
A|----------------------------------------------------------------------------|
E|----------------------------------------------------------------------------|

                                )
E|--12~-----12~-14~--12~--12~--15-------15~-----------------------------------|
B|----------------------------------------------------------------------------|
G|----------------------------------------------------------------------------|
D|----------------------------------------------------------------------------|
A|----------------------------------------------------------------------------|
E|----------------------------------------------------------------------------|

E|--12~-----12~-14~--12~--12~--14~--12~---------------------------------------|
B|---------------------------------------13~-12~------------------------------|
G|----------------------------------------------------------------------------|
D|----------------------------------------------------------------------------|
A|----------------------------------------------------------------------------|
E|----------------------------------------------------------------------------|

E|----------------------------------------------------------------------------|
B|----------------------------------------------------------------------------|
G|----------------------------------------------------------------------------|
D|----------------------------------------------------------------------------|
A|----------------------7~~~~~--7~~~~~Deixe até dar microfonia----------------|
E|--3~~~~~~~--5~~~~~~~----------0---------------------------------------------|

 Final:
E|----------------------------------------------------------------------------|
B|----------------------------------------------------------------------------|
G|--7~~~---7------------------------------------------------------------------|
D|--7~~~---7------------------------------------------------------------------|
A|--9~~~---9------------------------------------------------------------------|
E|----------------------------------------------------------------------------|
Otros videos de esta canción
    54.651 exhibiciones
      • ½ Tono
      • A
      • Bb
      • B
      • C
      • Db
      • D
      • Eb
      • E
      • F
      • F#
      • G
      • Ab
    • Agregar a la lista

    Afinación de cifrado

    Afinador online

      OK