Cifra Club

The Curse

Audioslave

Cifrado: Principal (guitarra y guitarra eléctrica)
tono: E
Nota: Em algumas partes em que é tocado o 
acorde de Mi maior existe uma 2º guitarra 
que toca isto:

E|-0-----0--|
B|----0-----|
G|----------|
D|----------|
A|----------|
E|----------|

Nota 2: Este é outro dedilhado que você 
vai ouvir em certas partes da música. 
Neste use o TREMOLO.

E|-------------------------------------|
B|-------------------------------------|
G|-------------------------------------|
D|-2--------2--------------------------|
A|--------2---2-4--------4---3------0--|
E|---------------------4---4-----------|

Intro: E  A  E

Primeira Parte:
E            A              E
  Help me I don't know I'm doin
           A              E
Help me before I fall to ruin
B              A    E
  And if I'm blind, I will lead you on
B              A         C#m              B
  Come follow me now, before our time is gone

Refrão:
A                                 C#m
  And as you're laughing at this fool tonight
        C                          A
Let me rid myself of any line that I might use to 
  C
Trip you up
E                        C#m                  C
  And as I'm howling at moonlight, don't you kid 
                          B
yourself, I will be your luck 
               E    A  E               E     A  E
Never be your curse     never be your curse

Segunda Parte:
           A                   E
Help me I don't know what I'm saying
                A                E
Sometimes this tongue can be betraying
B              A    E
  And if I'm wrong, is that such a crime
B             A             C#m             B
  And if you want, you can set my words to right

Refrão:
A                                    C#m
  So and as you're laughing at this fool tonight
        C                          A
Let me rid myself of any line that I might use to 
  C
Trip you up
E                        C#m                  C
  And as I'm howling at moonlight, don't you kid 
                          B
yourself, I will be your luck

Ponte:
F#            A               E
  And if your eyes forget to well
F#             A              E
  And if your lies forget to tell
B             A                C#m
  And if our paths forget to cross
    B                   C#m
It doesn't mean you're lost

Solo:

E|------7--4--5-4-2-4--2-0----------7--4--5-4-2-0-|
B|----5---------------------------5---------------|
G|-6-----------------------6p4-6------------------|
D|------------------------------------------------|
A|------------------------------------------------|
E|------------------------------------------------|

E|------------7--4--5-4-5-7-5-4-5-7-5-4-5-7-5-4-2-0-|
B|-----5----5---------------------------------------|
G|-4h6---6------------------------------------------|
D|--------------------------------------------------|
A|--------------------------------------------------|
E|--------------------------------------------------|

E|------7--4-----------------|
B|----5----------------------|
G|-6-------------------------|
D|---------------------------|
A|---------------------------|
E|---------------------------|

Refrão
A                                    C#m
  So and as you're laughing at this fool tonight
        C                          A
Let me rid myself of any line that I might use to 
  C
Trip you up
E                        C#m                  C
  And as I'm howling at moonlight, don't you kid 
                            A
yourself, cause even at my worst

E                            C#m
  If you're laughing at this fool tonight
        C                          A
Let me rid myself of any line that I might use to 
  C
Trip you up

E                        C#m                  C
  And as I'm howling at moonlight, don't you kid 
                          A
yourself, I will be your luck
      Am          C
Cause even at my worst
                B
I will be your luck
               E
Never be your curse
00:00 / 00:00
Otros videos de esta canción
Repetir
Otros videos de esta canción
Composición de Audioslave / Chris Cornell
Colaboración y revisión:
  • Lucas Kappaun
  • Marcio Silva
506 vistas
    • ½ Tono
    • A
    • Bb
    • B
    • C
    • Db
    • D
    • Eb
    • E
    • F
    • F#
    • G
    • Ab
  • Agregar a la lista

    0 comentarios

    Ver todos los comentarios

    ¿Lograste tocar?

    1 Tocaron 0 Aún no

    ¡Graba un video tocando The Curse y envíanoslo!

    00:00 / 00:00
    OK