Cifra Club

The Last Remaining Light

Audioslave

Cifrado: Principal (guitarra y guitarra eléctrica)
Selo Cifra Club: esta cifra foi revisada para atender aos critérios oficiais da nossa Equipe de Qualidade.
tono: C
Intro:
E|----------------------------------------------------|
B|---6-----5-----8-----5-----6-----5-----8-----5------|
G|------7-----7-----7-----7-----7-----7-----7-----7---|
D|----------------------------------------------------|
A|----------------------------------------------------|
E|----------------------------------------------------|  

Primeira Parte:
E|----------------------------|
B|---6-----8-----8-----6------|
G|------7-----9-----9-----7---| (3x)
D|----------------------------|
A|----------------------------|
E|----------------------------| 

E|--------------------------|
B|---6-----5-----8-----6~---|
G|------7-----7-----7-------|
D|--------------------------|
A|--------------------------|
E|--------------------------| 

E|----------------------------|
B|---6-----5-----8-----5------|
G|------7-----7-----7-----8---|
D|----------------------------|
A|----------------------------|
E|----------------------------| 

Roll me on your frozen fields
Break my bones to watch them heal
Drown me in your thirsty veins
Where I'll watch and I'll wait
And pray for the rain  

Segunda Parte:
E|----------------------------|
B|---6-----8-----8-----6------|
G|------7-----9-----9-----7---|  (2x)
D|----------------------------|
A|----------------------------|
E|----------------------------|  

E|--------------------------------------------------------|
B|---6---6---6----8---8---8----8---8---8----6---6---6-----|
G|-----7---7---7----9---9---9----9---9---9----7---7---7---|
D|--------------------------------------------------------|
A|--------------------------------------------------------|
E|--------------------------------------------------------| 

E|-----------------------------------------------|
B|---6---6---6----5---5---5----8---8---8----6~---|
G|-----7---7---7----7---7---7----7---7---7-------|
D|-----------------------------------------------|
A|-----------------------------------------------|
E|-----------------------------------------------| 

Curl like smoke and breathe again
Down your throat, inside your ribs
Through your spine and every nerve
Where I'll watch and I'll wait
And yield to the hurt 

Refrão:
E|---------0-------------3-------------7--------------7-------|
B|-------1---1---------0---0---------7---7----------7---7-----|
G|-----2-------2-----0-------0-----7-------7------7-------7---|  (3x)
D|---3-------------2-------------9----------------------------|
A|---------------------------------------------10-------------|
E|------------------------------------------------------------| 

And if you don?t believe
The sun will rise
Stand alone and greet 
The coming night
In the last remaining light  

Solo 1:
E|--------------------------------------------------------------|
B|--------------------------------------------------------------|
G|--------------------------------------------------------------|
D|---12---14--15--14--15--14--10---10--12--14--15--17--15--14---|
A|--------------------------------------------------------------|
E|--------------------------------------------------------------|

E|-------------------------------------------------------|
B|-------------------------------------------------------|
G|-------------------------------------------------------|
D|---15--14--14---15--14--10---15--14--10--10---10/14~---|
A|-------------------------------------------------------|
E|-------------------------------------------------------|

Terceira Parte:
E|----------------------------|
B|---6-----8-----8-----6------|
G|------7-----9-----9-----7---| (2X)
D|----------------------------|
A|----------------------------|
E|----------------------------|  

E|--------------------------------------------------------|
B|---6---6---6----8---8---8----8---8---8----6---6---6-----|
G|-----7---7---7----9---9---9----9---9---9----7---7---7---|
D|--------------------------------------------------------|
A|--------------------------------------------------------|
E|--------------------------------------------------------| 

E|-----------------------------------------------|
B|---6---6---6----5---5---5----8---8---8----6~---|
G|-----7---7---7----7---7---7----7---7---7-------|
D|-----------------------------------------------|
A|-----------------------------------------------|
E|-----------------------------------------------|

Seven moons and seven suns
Heaven wait for those who run
Down your winter and underneath your waves
Where you watch and you wait
And pray for the day  

Refrão 2:
E|---------0-------------3-------------7--------------7-------|
B|-------1---1---------0---0---------7---7----------7---7-----|
G|-----2-------2-----0-------0-----7-------7------7-------7---|  (3x)
D|---3-------------2-------------9----------------------------|
A|---------------------------------------------10-------------|
E|------------------------------------------------------------| 

E|---------7-------7---|
B|-------7---7---------|
G|-----7-------7-------|
D|---9-----------------|
A|---------------------|
E|---------------------|

And if you don?t believe
The sun will rise
Stand alone and greet 
The coming night
In the last remaining light

Solo 2:
E|-----------------------------------------------------------------------------------------|
B|-----------------------------------------------------------------------------------------|
G|-------10----------------------------10------10------10--12--14--12~--14--12~--10--------|
D|---12------12--10------10--12~---12------12------12-------------------------------12/0---|
A|-------------------12--------------------------------------------------------------------|
E|-----------------------------------------------------------------------------------------|

E|---12-----------------------------------------------|
B|-------13-------------------------------------------|
G|-----------14----13--12--10--12---14--13--12--12----|
D|----------------------------------------------------|
A|----------------------------------------------------|
E|----------------------------------------------------|

E|-------------------------------------------------------------------------------|
B|--------------------------------------------------------------------------15---|
G|---14--13--12--10--9---9/10-------------------------------------------14-------|
D|------------------------------10/12---10/7---5----------------12--15-----------|
A|-------------------------------------------------5/0------12-------------------|
E|------------------------------------------------------10-----------------------| 

Refrão 3:
E|---------0-------------3-------------7--------------7-------|
B|-------1---1---------0---0---------7---7----------7---7-----|
G|-----2-------2-----0-------0-----7-------7------7-------7---|  (3X)
D|---3-------------2-------------9----------------------------|
A|---------------------------------------------10-------------|
E|------------------------------------------------------------|  

And if you don?t believe
The sun will rise
Stand alone and greet 
The coming night
In the last remaining light

Final:
E|---------7-------|
B|-------7---7-----|
G|-----7-------7---| (6x)
D|---9-------------|
A|-----------------|
E|-----------------| 

Light
Light
Light
Otros videos de esta canción
    15.432 exhibiciones
      • ½ Tono
      • A
      • Bb
      • B
      • C
      • Db
      • D
      • Eb
      • E
      • F
      • F#
      • G
      • Ab
    • Agregar a la lista

    Afinación de cifrado

    Afinador online

      OK