Cifra Club

What you are

Audioslave

Cifrado: Principal (guitarra y guitarra eléctrica)
Selo Cifra Club: esta cifra foi revisada para atender aos critérios oficiais da nossa Equipe de Qualidade.
tono: G
Tuning: Drop B (BADGBE)

Intro/Verso
E|---------------------------------------------------------------------------|
B|---------------------------------------------------------------------------|
G|---------------------------------------------------------------------------|
D|-------4---4----4-----2----2--2---0--0---0------2----2----2----------------|
A|---2-----2---2-----2----2---2---2--2---2-----4----4----4-------------------|
B|---------------------------------------------------------------------------| x 6

Refrão:
E|---------------------------------------------------------------------------|
B|---------------------------------------------------------------------------|
G|---13-13-13-13---8-8-8-8------6-6-----4-4-4-4-4----------------------------|
D|---14-14-14-14---9-9-9-9------7-5-----5-5-5-5-5----------------------------|
A|---14-14-14-14---9-9-9-9------7-7-----5-5-5-5-5----------------------------|
B|---12-12-12-12---7-7-7-7------5-5-----3-3-3-3-3----------------------------| x4
Last time
E|---------------------------------------------------------------------------|
B|---------------------------------------------------------------------------|
G|-----8-8-8-8---------------------------------------------------------------|
D|-----9-9-9-9---------------------------------------------------------------|
A|-----9-9-9-9---------------------------------------------------------------|
B|-----7-7-7-7----------9-9--6-5---3-0---------------------------------------|

Verso:
E|---------------------------------------------------------------------------|
B|---------------------------------------------------------------------------|
G|---------------------------------------------------------------------------|
D|-------4---4----4-----2----2--2---0--0---0------2----2----2----------------|
A|---2-----2---2-----2----2---2---2--2---2-----4----4----4-------------------|
B|---------------------------------------------------------------------------| x4

Refrão:
E|---------------------------------------------------------------------------|
B|---------------------------------------------------------------------------|
G|---13-13-13-13---8-8-8-8------6-6-----4-4-4-4-4----------------------------|
D|---14-14-14-14---9-9-9-9------7-5-----5-5-5-5-5----------------------------|
A|---14-14-14-14---9-9-9-9------7-7-----5-5-5-5-5----------------------------|
B|---12-12-12-12---7-7-7-7------5-5-----3-3-3-3-3----------------------------| x3
Last time
E|---------------------------------------------------------------------------|
B|---------------------------------------------------------------------------|
G|-----8-8-8-8---------------------------------------------------------------|
D|-----9-9-9-9---------------------------------------------------------------|
A|-----9-9-9-9---------------------------------------------------------------|
B|-----7-7-7-7----------9-9--6-5---3-0---------------------------------------|

Solo:
E|----0-----------------------------0------------------------0---------------|
B|----0------*----------------------0-------*----------------0---*-----------|
G|----5p3----------5b(with whammy)--5p3--------3b(w/ whammy)-5p3---5b(wammy)-|
D|---------------------------------------------------------------------------|
A|---------------------------------------------------------------------------|
B|---------------------------------------------------------------------------|

E|---------------------------------------------------------------------------|
B|---------------------------------------------------------------------------|
G|---3-5-3-5-3b-0------------------------------------------------------------|
D|---------------------------------------------------------------------------|
A|---------------------------------------------------------------------------|
B|---------------------------------------------------------------------------|

E|----0-----------------------------0------------------------0---------------|
B|----0------*----------------------0-------*----------------0---*-----------|
G|----5p3----------5b(with whammy)--5p3--------3b(w/ whammy)-5p3---5b(wammy)-|
D|---------------------------------------------------------------------------|
A|---------------------------------------------------------------------------|
B|---------------------------------------------------------------------------|

E|---------------------------------------------------------------------------|
B|---------------------------------------------------------------------------|
G|--3-5-3-5-7b~~~~~~~~-------------------------------------------------------|
D|---------------------------------------------------------------------------|
A|---------------------------------------------------------------------------|
B|---------------------------------------------------------------------------|

Ponte:
E|---------------------------------------------------------------------------|
B|---------------------------------------------------------------------------|
G|---------------------------------------------------------------------------|
D|---------------------------------------------------------------------------|
A|---------------------------------------------------------------------------|
B|---12-12-12-12--9-9-9-9--5-5--3-3-3-3-3-3----------------------------------| x4

Refrão:
E|---------------------------------------------------------------------------|
B|---------------------------------------------------------------------------|
G|---13-13-13-13---8-8-8-8------6-6-----4-4-4-4-4----------------------------|
D|---14-14-14-14---9-9-9-9------7-5-----5-5-5-5-5----------------------------|
A|---14-14-14-14---9-9-9-9------7-7-----5-5-5-5-5----------------------------|
B|---12-12-12-12---7-7-7-7------5-5-----3-3-3-3-3----------------------------| x3
Last time
E|---------------------------------------------------------------------------|
B|---------------------------------------------------------------------------|
G|-----8-8-8-8-8-------------------------------------------------------------|
D|-----9-9-9-9-9-------------------------------------------------------------|
A|-----9-9-9-9-9-------------------------------------------------------------|
B|-----7-7-7-7-7-------------------------------------------------------------|

Final:
E|---------------------------------------------------------------------------|
B|---------------------------------------------------------------------------|
G|---13-13-13-13---8-8-8-8------6-6-----4-4-4-4-4----------------------------|
D|---14-14-14-14---9-9-9-9------7-5-----5-5-5-5-5----------------------------|
A|---14-14-14-14---9-9-9-9------7-7-----5-5-5-5-5----------------------------|
B|---12-12-12-12---7-7-7-7------5-5-----3-3-3-3-3----------------------------| x3
Last time
E|---------------------------------------------------------------------------|
B|---------------------------------------------------------------------------|
G|-----8-8-8-8---------------------------------------------------------------|
D|-----9-9-9-9---------------------------------------------------------------|
A|-----9-9-9-9---------------------------------------------------------------|
B|-----7-7-7-7----------9-9--6-5---3-0~~~ring~~~~----------------------------|
Otros videos de esta canción
    30.059 exhibiciones
      • ½ Tono
      • A
      • Bb
      • B
      • C
      • Db
      • D
      • Eb
      • E
      • F
      • F#
      • G
      • Ab
    • Agregar a la lista

    Afinación de cifrado

    Afinador online

      OK