Cifra Club

Murder Song 5 4 3 2 1

AURORA

Chords: Principal (acoustic and electric guitars)
tone: Am
[Intro] Am  Am/G  F7M  G6

     Am              Am/G            F7M
E|-------0---------------0---------------0-----------|
B|---1------1--------1------1--------1-------1-------|
G|-2---2--2---2-2--2---2--2---2-2--2---2---2---2-2---|
D|---------------------------------------------------|
A|0-0---0--0---0-------------------------------------|
E|----------------3-3---3--3---3--1-1---1---1---1----|

     G6
E|-------0-------------------------------------------|
B|---0-------0---------------------------------------|
G|-0---0---0---0-0-----------------------------------|
D|---------------------------------------------------|
A|---------------------------------------------------|
E|3-3---3---3---3------------------------------------|

[Verso]

Am          Am/G
5, 4, 3, 2, 1
F7M         G6
5, 4, 3, 2, 1
   Am        Am/G F7M       G6
He holds the gun against my head
  Am       Am/G     F7M       G6
I close my eyes and bang I am dead
  Am      Am/G           F7M               G6
I know he knows that he's killing me for mercy

[Refrão]

            Am
And here I go
         Am/G
Oh oh oh oh
         F7M
Oh oh oh oh
         G6
Oh oh oh oh
            Am
And here I go
         Am/G
Oh oh oh oh
         F7M
Oh oh oh oh
         G6
Oh oh oh oh

[Verso]

   Am
He holds my body in his arms
   Am/G
He didn't mean to do no harm
       F7M      G6
And he holds me tight
       Am
Oh, he did it all to spare me
         Am/G
From the awful things in life that come
      F7M        G6
And he cries and cries
  Am      Am/G           F7M               G6
I know he knows that he's killing me for mercy

[Refrão]

            Am
And here I go
         Am/G
Oh oh oh oh
         F7M
Oh oh oh oh
         G6
Oh oh oh oh
            Am
And here I go
         Am/G
Oh oh oh oh
         F7M
Oh oh oh oh
         G6
Oh oh oh oh

Verso

    F                 D7/F#           G
E|-------0----------------0----------------0---------|
B|---1-----1-1---1----1-----1-1---1----0-----0-0---0-|
G|-2---2-------2----2---2-------2----0---0-------0---|
D|---------------------------------------------------|
A|---------------------------------------------------|
E|1-1---1---1---1--2-2---2---2---2--3-3---3---3---3--|

    E7/G#
E|-------0-------------------------------------------|
B|---3-----3-3---3-----------------------------------|
G|-4---4-------4-------------------------------------|
D|---------------------------------------------------|
A|---------------------------------------------------|
E|4-4---4---4---4------------------------------------|

   F7M
He holds my body in his arms
   D7/F#
He didn't mean to do no harm
      G6        E7/G#
And he holds me tight
       F7M
Oh, he did it all to spare me
         D7/F#
From the awful things in life that come
       G6        E7/G#
And he cries and cries

Am  Am/G 

F7M         G6
5, 4, 3, 2, 1
Am          Am/G
5, 4, 3, 2, 1
F7M         G6
5, 4, 3, 2, 1


The gun is gone

And so am I

And here I go
00:00 / 00:00
Other videos of this song
Repeat
Other videos of this song
Composer not found.
Collaboration and Review:
4.916 views
    • ½ Tone
    • Am
    • Bbm
    • Bm
    • Cm
    • C#m
    • Dm
    • Ebm
    • Em
    • Fm
    • F#m
    • Gm
    • G#m
  • Add to list
    00:00 / 00:00
    OK