Cifra Club

Aprenda

Warrior

AURORA

Tablatura: Principal (guitarra)
tono: G
Intro: Em C Am Bm

       Em           C            Am           Bm
E|----------------------------------------------------|
B|-------8------------5------------5------------7--10-|
G|----------9------------5------------5---------7--7--|
D|----9------------5------------7------------9--9--9--|
A|--------------3------------0------------------------|
E|-0--------------------------------------7-----------|
    
      Em            C           Am              Bm
E|---------------------------------------------------------|
B|-------8------------5------------5--------------7---10-7-|
G|----------9------------5------------5-----------7---7--7-|
D|-----------------5------------7-----------------9---9--9-|
A|----7---------3------------0----------------9------------|
E|-0--------------------------------------7----------------|

 Em        C
  I fall asleep in my own tears 
Am                  Bm
  I cry for the the world, for everyone 
Em              C
  And I build a boat to float in 
    Am          Bm
I'm floating away 

Em           C
  I can't recall the last time 
  Am                        Bm
I opened my eyes to see the world as beautiful 
Em              C
  And I built a cage to hide in 
    Am                Bm
I'm hiding, I'm trying to battle the night 

D          G            C
  Let love conquer your mind 
C
Warrior, warrior 
D            G           C
  Just reach out for the light 
C
Warrior, warrior 
D        G      C
  I am a warrior 
C
Warrior, warrior 
D        G      C
  I am a warrior 
C                   D
Warrior, warrior of love 

Em          C
  I stand behind the wall of  
Am                   Bm
People and thoughts, mind controlling 
Em             C
  And I hold a sword to guide me 
    Am            Bm
I'm fighting my way 

Em           C
  I can't recall the last time 
  Am                        Bm
I opened my eyes to see the world as beautiful 
Em              C
  And I built a cage to hide in 
    Am                Bm
I'm hiding, I'm trying to battle the night 

D          G            C
  Let love conquer your mind 
C
Warrior, warrior 
D            G           C
  Just reach out for the light 
C
Warrior, warrior 
D        G      C
  I am a warrior 
C
Warrior, warrior 
D        G      C
  I am a warrior 
C                   D
Warrior, warrior of love 

                    C
Underneath darkened skies 
D                     C
  There's a lamp kept alight 

D          G            C
  Let love conquer your mind 
C
Warrior, warrior 
D            G           C
  Just reach out for the light 
C
Warrior, warrior 
D        G      C
  I am a warrior 
C
Warrior, warrior 
D        G      C
  I am a warrior 
C                   D        C
Warrior, warrior of love 
           D        C
Warrior of love 
           D        C
Warrior of love
Composição de Aurora Aksnes
Colaboración y revision:
636 reproducciones
    • ½ Tono
    • A
    • Bb
    • B
    • C
    • Db
    • D
    • Eb
    • E
    • F
    • F#
    • G
    • Ab
  • Adicionar à lista

    0 comentarios

    Ver todos os comentários

    ¿Conseguiste tocar?

    45 Tocaram 8 Ainda não

    Grave um vídeo tocando Warrior e nos envie!

    00:00 / 00:00
    outros vídeos desta música
    repetir qualidade Automático
    Outros vídeos desta música
    00:00 / 00:00
    Automático
    OK