Cifra Club

Alevosía

Luis Eduardo Aute

Cifrado: Principal (guitarra y guitarra eléctrica)
tono: C

INTRO
    Dm                   G                      Dm                G
E|-----------5-------------------------------|----------5------------------------------|
B|-------6---6----6-----------0-1-0--1p0-----|------6---6---6---------0-1-3--3p1p0-----|
G|-------7-7----7---7-------0------------0---|------7-7---7---7-----0--------------0---|
D|-----7-----------------------------------0-|----7----------------------------------0-|
A|---5---------------------------------------|--5-------------------------2------------|
E|------------------------3------------------|--------------------3--------------------|


Dm
Más que amor lo que siento por ti
      G           C
es el mal del animal
       Dm           Am
no la terquedad de jabalí
       G           C
ni la furia del chacal.
       Am7
Es el alma que se encela
        Dm
con instinto criminal,
                    G  Dm
es amar hasta que duela,
                   G
como un golpe de puñal.

Ay amor, ay dolor,
                        Dm
yo te quiero con alevosía
G                       C
yo te quiero con alevosía.


    Dm                   G                      Dm                G
E|-----------5-------------------------------|----------5------------------------------|
B|-------6---6----6-----------0-1-0--1p0-----|------6---6---6---------0-1-3--3p1p0-----|
G|-------7-7----7---7-------0------------0---|------7-7---7---7-----0--------------0---|
D|-----7-----------------------------------0-|----7----------------------------------0-|
A|---5---------------------------------------|--5-------------------------2------------|
E|------------------------3------------------|--------------------3--------------------|


    Dm
Necesito confundir tu piel
         G         C
con el frío del metal,
      Dm             Am
o tal vez con el destello cruel
          G             C
de un fragmento de cristal
        Am
Quiero que tus sentimientos
      Dm
sean puro mineral,
                     G     Dm
polvo de cometa al viento
                G
del espacio sideral

Ay amor, ay dolor,
                      Dm
yo te quiero con alevosía
G                     C
yo te quiero con alevosía.


    Dm                   G                      Dm                G
E|-----------5-------------------------------|----------5------------------------------|
B|-------6---6----6-----------0-1-0--1p0-----|------6---6---6---------0-1-3--3p1p0-----|
G|-------7-7----7---7-------0------------0---|------7-7---7---7-----0--------------0---|
D|-----7-----------------------------------0-|----7----------------------------------0-|
A|---5---------------------------------------|--5-------------------------2------------|
E|------------------------3------------------|--------------------3--------------------|

solo

E|--10-12-13-15-17----10-12-13--12-10-12----------------------------|
B|----------------------------------------10-12-13-12-10-10---------|
G|-----------------------------------------------------------12-12--|
D|------------------------------------------------------------------|
A|------------------------------------------------------------------|
E|------------------------------------------------------------------|

E|--13-12-12-10-10----10-------------------17-15-15-13s12s13----|
B|-----------------13----12-------------------------------------|
G|--------------------------------------------------------------|
D|--------------------------------------------------------------|
A|--------------------------------------------------------------|
E|--------------------------------------------------------------|

        Dm
Nada envidio a la voracidad
        G            C
de tu amante más letal,
       Dm         Am
ella espera tu fatalidad,
          G         C
yo pretendo lo inmortal,
      Am
el espíritu que habita
       Dm
tu belleza más carnal,
                 G   Dm
esa luz que resucita
                G
el pecado original.

Ay, amor, ay dolor,
                      Dm
yo te quiero con alevosía  ah na na na
G                      C                 Dm
yo te quiero con alevosía. ah na hay dolor
                      G           Dm
yo te quiero con alevosía  ah na na na
                  G    C
yo te quiero con alevosía  ah na na na
Composición de Luis Eduardo Aute
17 vistas
    • ½ Tono
    • A
    • Bb
    • B
    • C
    • Db
    • D
    • Eb
    • E
    • F
    • F#
    • G
    • Ab
  • Agregar a la lista

    0 comentarios

    Ver todos los comentarios

    ¿Lograste tocar?

    0 Tocaron 0 Aún no

    ¡Graba un video tocando Alevosía y envíanoslo!

    00:00 / 00:00
    Otros videos de esta canción
    Repetir Calidad Automático
    Otros videos de esta canción
    00:00 / 00:00
    Automático
    OK