Cifra Club

Sin tu Latido

Luis Eduardo Aute

Cifrado: Principal (guitarra y guitarra eléctrica)
tono: A
INTRO:
E|-------------------------------|
  Guitarra 1             |                       3 veces |
E|-------0----------------|------------0------------------|
B|----------------3p2-3p2-|---------------------3p2-3p2---|
G|-----2---2------2---2---| *---------2---2------2---2----*|
D|---2-------2------------| *-------2-------2-------------*|
A|-0-----------0----------|------0-----------0------------|
E|------------------------|-------------------------------|
| Guitarra 2             |                               |
E|------------------------|-------------------------------|-----|
B|-------5--------3p2-3p2-|------------5--------3p2-3p2---|-----|
G|-2-2------------2---2---| *-----2-2------------2---2----*|-----
D|-----2------------------| *-2h4-----2-------------------*|-2h4-
A|------------------------|-------------------------------|-----|
E|------------------------|-------------------------------|-----|

VERSOS:

A                E
Hay algunos que dicen,
      D
que todos los caminos conducen
   A   Asus4
A Roma
   A                    E
Y es verdad porque el mìo,
     D
me lleva cada noche al hueco que
    A       Asus4
te nombra
A                 E
Y le hablo y le sueño,
   D
una sonrisa, una blasfemia y una
  A      Asus4
derrota
A                   E
Vuelvo atado a tus ojos
   D
y duermo con tu nombre besando
    A
mi boca.

CORO:

         Bm  C#m                   E               A    Asus4
Hay amor mìo, que terriblemente absurdo es, estar vivo
A                                   Bm  Bm/A           E
Sin el alma de tu cuerpo, sin tu latido,      sin tu latido.

INTRO

El final de esta historia,
enèsima autobiografìa de un
fracaso.

No te sirvan de ejemplo,
hay quièn afirma que el amor es un
milagro.

Que no hay mal que no cure,
pero tampoco bien que te durè
cien años

Eso casi lo salva,
lo malo son las noches que monta en
E  mano.

CORO

INTRO

Aunque todo ya es nada,
No sè porque te escondes y huyes de
E  encuentro.

Por saber de tu vida,
no creo que vulnere ningùn
mandamiento.

Tan terrible es el odio,
que ni te atreves a mostrarme tu
desprecio.

Pero no me hagas caso,
lo que me pasa es que a este mundo no
lo entiendo.

CORO 3 VECES.
Desde la primera repeticion del coro, en la version qe yo tengo;
entra un disto que esta de poca.

FINAL

 Guitarra 1
E|-------------------------------------------------------|
B|-------------------------------------------------------|
G|-------------------------------------------------------|
D|-------------------------------------------------------|
A|-0-------------2--------------4-------------5----------|
E|-------------------------------------------------------|
|Guitarra 2                                             |
E|-------------------------------------------------------|
B|-------5--------3p2-3p2-------------5--------3p2-3p2---|
G|-2-2------------2---2---------2-2------------2---2-----|
D|-----2--------------------2h4-----2--------------------|
A|-------------------------------------------------------|
E|-------------------------------------------------------|

  Guitarra 1
E|--------------------------------------|
B|--------------------------------------|
G|-2~~~---------------------------------|
D|-3~~~---------------------------------|
A|-3~~~---------------------------------|
E|-1~~~---------------------------------|
  * Sorpresa (F)

  Guitarra 2
E|------------------|---0----------0~~~-|
B|------------------|-----2-------------|
G|-----2-----0~~~~~-|-------2----2------|
D|-2h4--------------|----------2--------|
A|------------------|-0-----------------|
E|------------------|-------------------|

Esa es toda la rola, la guitarra 1 lleva el ritmo y la 2 hace
adornos, los cuales no pongo por hueva, pero la cancion esta
en A o sea que puedes improvisar con la escala mayor de A o
con la pentatonica de Em.

Los acordes:

E|-5-4-3-2-1| cuerdas
Composición de Luis Eduardo Aute
49 vistas
    • ½ Tono
    • A
    • Bb
    • B
    • C
    • Db
    • D
    • Eb
    • E
    • F
    • F#
    • G
    • Ab
  • Agregar a la lista

    0 comentarios

    Ver todos los comentarios

    ¿Lograste tocar?

    0 Tocaron 0 Aún no

    ¡Graba un video tocando Sin tu Latido y envíanoslo!

    00:00 / 00:00
    Outros vídeos desta música
    Repetir Calidad Automático
    Outros vídeos desta música
    00:00 / 00:00
    Automático
    OK