Notificações Amigos pendentes

      Avenged Sevenfold

      Dear God

      18.066 reproducciones
      Tono: G Afinación: D G C F A D
      Intro 2x:  G  D  Em  Bm  C9  G  D
      (Violão 2)
      
          G
      E|----3------------------------------------
      B|----3--0h1p0----------3------------------
      G|----0--------2-0----2----2h4p2p0----0----
      D|----0-------------4-------------2/4------
      A|-----------------------------------------
      E|--3-----------------------------------0--
      
      
                  Bm11        C
      E|----------0-0----------------------------
      B|----------3---3---------------1h3-1------
      G|-2--------4-----4---------0--------------
      D|-4h5p4-2--4-------------2---2------------
      A|-2--------2-------2-5-3------------------
      E|-----------------------------------------
      
      
                          D
      E|------------------2----------------------
      B|-------0----0-----3--------------3-------
      G|-----2---2----2-0-2--------------2h4p2---
      D|------------------0--0-4h5-2-4-5-------5-
      A|-----------------------------------------
      E|-3---------------------------------------
      
      
      E|-----------------------------------------
      B|-3---------------------------------------
      G|-4---------------------------------------
      D|---5-4-5-2-0-----------------------------
      A|-----------------------------------------
      E|-----------------------------------------
      
      
      (Final)
      
      E|---3-----3-------2-----------------------
      B|---3-------3-----3-----3-----------------
      G|-----2h4-----4-2-2-----2h4p2-0-----0-2---
      D|-----------------0--0----------2-4-------
      A|-----------------------------------------
      E|-3---------------------------------------
      
      
      E|-----------------------------------------
      B|-----------------------------------------
      G|-----------------------------------------
      D|-2p0-------------------------------------
      A|-----------------------------------------
      E|-----------------------------------------
      
      
      
      Primeira Parte:
      
      E|--------------------------3-2------------
      B|-------3---3----------3-------3----------
      G|-----0---0---0------2---2-------0--------
      D|---0-----------0--0----------------------
      A|-----------------------------------------
      E|-3---------------------------------------
      
      
      E|-------0-------0--0----------------------
      B|-----3---X--3--3----3--------------------
      G|-----0---X--0--4------4------------0-----
      D|---2-----X-----4--------4----0---2---2---
      A|---------X-----2-----------2---3---------
      E|-0---------------------------------------
      
      
      E|------------------3-----2----------------
      B|-1--------------0---0---3----------------
      G|---0----------2-------2-2----------------
      D|-----2------0-----------0--4h5p4-2-4-----
      A|-------3---------------------------------
      E|----------3------------------------------
      
      
      E|-----------------------------------------
      B|-3---------------------------------------
      G|-2h4p2-0---------------------------------
      D|---------2-4-----------------------------
      A|-----------------------------------------
      E|-----------------------------------------
      
      
      E|------------------3-------2--------------
      B|-1------------------0-----3--3-----------
      G|---0----------2h4-----2-0-2--2h4p2-0-----
      D|-----2------0-------------0----------2-4-
      A|-------3---------------------------------
      E|----------3------------------------------
      
      
      E|-----------------------------------------
      B|-----------------------------------------
      G|-0-2--2h4p2p0----------------------------
      D|-----------------------------------------
      A|-----------------------------------------
      E|-----------------------------------------
      
      
      
      G           D              Em                Bm
        A lonely road, crossed another cold state line
       C9               G           D
      Miles away from those I love purpose hard to find
      G            D            Em                 Bm
        While I recall all the words you spoke to me
            C9                 G
      Can't help but wish that I was there
            D
      Back where I'd love to be, oh yeah
      
      Refrão:
      G       D      Em           D
        Dear God the only thing I ask of you is
          C9                G
      to hold, her when I'm not around
               D
      when I'm much too far away
      G         D         Em             D
        We all need that person who can be true to you
             C9             G
      But I left her when I found her
          D
      And now I wish I'd stayed
                  C9            D
      ’Cause I'm lonely and I'm tired
             B7        Em  D    C9
      I'm missing you again oh no
             G
      Once again
      
      Primeira Parte - com variação na letra:
                       D          Em              Bm
      There's nothing here for me on this barren road
              C9                    G
      There's no one here while the city sleeps
          D
      and all the shops are closed
      G                 D           Em                  Bm
       Can't help but think of the times I've had with you
       C9                G              D
      Pictures and some memories will have to help me through, oh yeah
      
      Refrão:
      G       D      Em           D
        Dear God the only thing I ask of you is
          C9                G
      to hold, her when I'm not around
               D
      when I'm much too far away
      G         D         Em             Bm
        We all need that person who can be true to you
             C9             G
      But I left her when I found her
          D
      And now I wish I'd stayed
                  C9            D
      ’Cause I'm lonely and I'm tired
             B7        Em  D    C9
      I'm missing you again oh no
             G
      Once again
      
      Terceira Parte:
      
      E|------------------------------------------
      B|------------------------------------------
      G|-------11----12---11---------11----12-----
      D|-------9-----9----9----9--9--9-----9------
      A|-7--7--7-----7----7-----------------------
      E|-0--0-----0----0-----0-11-11----11----11--
      
      
      E|------------------------------------------
      B|------------------------------------------
      G|-11---------------9-----------------------
      D|-9-----------12-------12---------7---7----
      A|----------10-------------------5-------5--
      E|----11--8-------8---8-----8--3-----3------
      
      
      E|------------------------------------------
      B|------------------------------------------
      G|------------------------------------------
      D|------------------------------------------
      A|------------------------------------------
      E|-2h3p2------------------------------------
      
      
      E|------------------------------------------
      B|-----0----0----0--------------------------
      G|-5---4----5----4--------------------------
      D|-5---5----5----5--------------------------
      A|-0---0--0-0--0-0--------------------------
      E|-5------5----5----------------------------
      
      
      E|------------------------------------------
      B|------------------------------------------
      G|-11--11--12----11----11----14----11h14p11-
      D|-12--12--12----12----12----12-------------
      A|-x---x------------------------------------
      E|-40--10--10-10----10----10----10----------
      
      
      E|------------------------------------------
      B|------------------------------------------
      G|-----12-12--------------------------------
      D|-14--12-12--------------------------------
      A|------------------------------------------
      E|------------------------------------------
      
      
      
      Em      D#º   C9                 G D9/F#
        Some search,  never finding a way
      Em        D#º  C9            G D9/F#
        Before long,  they waste away
      Em         D#º C9                       G D9/F#
        I found you,   something told me to stay
      Em       D#º  C9             G D9/F#
        I gave in,     to selfish ways
      Am7                         D
        And how I miss someone to hold
      
      when hope begins to fade...
      
      G           D              Em                Bm
        A lonely road, crossed another cold state line
       C9               G           D
      Miles away from those I love purpose hard to find
      
             G                 D
      E|----3-3~--3--2--2~-0---------------------
      B|----3-3~--3--3--3~-3---------------------
      G|----0-0~--0--2--2~-2--0-0-0-0-0----------
      D|----0-0~--0--0--0~-0--0-5p0-5p0h4p2h4----
      A|----------2------------------------------
      E|----------3------------------------------
            ↓ ↓   ↑  ↓  ↓  ↑
      
                      C9       G
      E|--------------3-3~--3--------------------
      B|--2-2h5p2--2--3-3~--3------3~-3~---------
      G|--4-------4---0-0~--0------0--0~---------
      D|--4-----------2-2~--2----0----0~---------
      A|--------------3-3~--3---------2~---------
      E|-----------------------3------3~---------
                      ↓ ↓   ↑         ↑
      
          D
      E|--2-2~--2--------------------------------
      B|--3-3~--3--------------------------------
      G|--2-2~--2--------------------------------
      D|--0-0~--0--------------------------------
      A|-----------------------------------------
      E|-----------------------------------------
          ↓ ↓   ↑
      
      
      
      G       D      Em           D
        Dear God the only thing I ask of you is
          C9                G
      to hold, her when I'm not around
               D
      when I'm much too far away
      G         D         Em             Bm
        We all need that person who can be true to you
             C9             G
      But I left her when I found her
          D
      And now I wish I'd stayed
                  C9            D
      ’Cause I'm lonely and I'm tired
             B7        Em  D    C9
      I'm missing you again oh no
             G
      Once again
        Composición: Avenged SevenfoldColaboración y revision:
        • tarsiuslima
        • erick_shadows
        • Joww
        • L.Goulart
        • +2

        Comentarios 231

        140 .
        • Marques Marques: Em 18/04/2016 19:40

          So faltou o solo final da guitarra ne!!!

        • daniel.cardosobarboza daniel.cardosobarboza: Em 09/04/2015 23:48

          Porra impossivel fazer isso sozinho '-'

        • Samuel Samuel: Em 22/02/2015 19:16

          façam vídeo aula da música gunslinger

        • renuel.cruz.7 renuel.cruz.7: Em 08/11/2014 16:30

          cade os solos

        • denis.rodriguesrocha denis.rodriguesrocha: Em 25/09/2014 16:57

          dificinha essa....

        • abner.silva.101 abner.silva.101: Em 05/08/2014 10:50

          "então nós vamos abafar aqui ó... apenas com O DEDO LÁ " ??!! o.O KKK fora isso ta tudo perfeito parabéns.

        • Miguel Miguel: Em 29/06/2014 14:46

          onde é a casa 40 ñ existe guitarra de 40 casas e falta um solo cifra club

        • luiz gustavo luiz gustavo: Em 08/06/2014 10:50

          nossa parabens perfeita aula solo inicial peguei facil o do meio precisei de treino mas ta otimo agora

        • joaopedromoreira.silva1 joaopedromoreira.silva1: Em 04/06/2014 17:19

          nossa esse dedilhado é mt dificil pra mim

        • jonas.nunees jonas.nunees: Em 17/05/2014 22:56

          essa galera fala q eh facil... fazer base escorregando a mao pra baixo e pra cima eh mole... quero ver tocar dedilhando igual ao gates!!

        140 cancelar

        ¿conseguiste tocar?

        • •••
        Guilherme Fernando Gielow321 visualizações
          ver cover de otras canciones »
          0:00 / 0:00
          2 versões de contrabajo reproducciones contribuición y correción
          2 versões de Guitar Proformatodownloadscontribuición
          play/pausefechar subir/bajar velocidad
          6ª cuerda E5ª cuerda A4ª cuerda D3ª cuerda G2ª cuerda B1ª cuerda E
            acordes
            publicidad
            cerrar
            ok