Enviar cifraEntrar

Gunslinger

Avenged Sevenfold

Acordes: Principal
reproducciones 3.916
Tono: C

|---------------------------|------------------------|
|-3--------3--------3-------|-----3----------3-3-3-3-|
|-2--------2--------2-------|-----2----------2-2-2-2-|
|-0--------0--------0-------|-----0----------3-3-3-3-|
|---3b-------3b-------3b----|-(3)---3-3--------------|
|---------------------------|------------------------|


|----------------------------------------------------------|
|----------------------------------------------/10---/8----|
|----------------------------------------------------------|
|----------------------------------------------------------|
|----------------------------------------------------------|
|----------------------------------------------------------|


|--------------------------------|
|-3--------3--------3------------|
|-2--------2--------2------------|
|-0--------0--------0------------|
|---3b-------3b-------3b-0-0-----|
|----------------------------3-0-|


|
|----------------------------------------------------------|
|-/6-------------------------------------------------------|
|----------------------------5/7-------------10/5/10-------|
|----------------------------------------------------------|
|----------------------------------------------------------|
|----------------------------------------------------------|


|----------------------------------------------------------|
|-3--3-3-3-3--3-3---3-3-3-3---1--1-1-1-1--1-1--1-1-1-1-----|
|-3--3-3-3-3--3-3---3-3-3-3---0--0-0-0-0--0-0--0-0-0-0-----|
|-0--0-0-0-0--0-0---0-0-0-0---2--2-2-2-2--2-2--2-2-2-2-----|
|-1--1-1-1-1--1-1---1-1-1-1---3--3-3-3-3--3-3--3-3-3-3-----|
|----------------------------------------------------------|


|-/10------------------------------------------------------|
|----------------------------------------------------------|
|----------------------------------------------------------|
|----------------------------------------------------------|
|----------------------------------------------------------|
|----------------------------------------------------------|


But with all that we've been through…

|----------------------------------------------------------|
|-3--3-3-3-3--3-3---3-3-3-3---1--1-1-1-1--1-1--1-1-1-1-----|
|-3--3-3-3-3--3-3---3-3-3-3---0--0-0-0-0--0-0--0-0-0-0-----|
|-0--0-0-0-0--0-0---0-0-0-0---2--2-2-2-2--2-2--2-2-2-2-----|
|-1--1-1-1-1--1-1---1-1-1-1---3--3-3-3-3--3-3--3-3-3-3-----|
|----------------------------------------------------------|

|
|----------------------------------------------------------|
|----------------------------------------------------------|
|-/7---------------------------/9--------------------------|
|----------------------------------------------------------|
|----------------------------------------------------------|
|----------------------------------------------------------|


|-1---1---1---1-----1-1-1-1--1---1----1-1-1-1--------------|
|-3---3---3---3-----3-3-3-3--3---3----3-3-3-3--------------|
|-2---2---2---2-----2-2-2-2--2---2----2-2-2-2-2-2----------|
|---0---0---0---0-0-3-3-3-3----0---0--3-3-3-3-2-2----------|
|---------------------------------------------0-0----------|
|--------------------------------------------------3---0---|

|
|-/10-----------------/10--/8----------5/8/5---------------|
|--------------------------------------------------/10--/6-|
|----------------------------------------------------------|
|----------------------------------------------------------|
|----------------------------------------------------------|
|----------------------------------------------------------|


|-1---1---1---1-----1-1-1-1--1---1----1-1-1-1--------------|
|-3---3---3---3-----3-3-3-3--3---3----3-3-3-3--------------|
|-2---2---2---2-----2-2-2-2--2---2----2-2-2-2-2-2----------|
|---0---0---0---0-0-3-3-3-3----0---0--3-3-3-3-2-2----------|
|---------------------------------------------0-0----------|
|--------------------------------------------------3---0---|

|
|----------------------------------------------------------|
|----------------------------------------------------------|
|-/7-------------------------------------------------------|
|----------------------------------------------------------|
|----------------------------------------------------------|
|----------------------------------------------------------|


|-1---1---1---1-----1-1-1-1--1---1----1-1-1-1--------------|
|-3---3---3---3-----3-3-3-3--3---3----3-3-3-3--------------|
|-2---2---2---2-----2-2-2-2--2---2----2-2-2-2-2-2----------|
|---0---0---0---0-0-3-3-3-3----0---0--3-3-3-3-2-2----------|
|---------------------------------------------0-0----------|
|--------------------------------------------------3---0---|


Cause with all these things we do…

|----------------------------------------------------------|
|-3--3-3-3-3--3-3---3-3-3-3---1--1-1-1-1--1-1--1-1-1-1-----|
|-3--3-3-3-3--3-3---3-3-3-3---0--0-0-0-0--0-0--0-0-0-0-----|
|-0--0-0-0-0--0-0---0-0-0-0---2--2-2-2-2--2-2--2-2-2-2-----|
|-1--1-1-1-1--1-1---1-1-1-1---3--3-3-3-3--3-3--3-3-3-3-----|
|----------------------------------------------------------|

|
|----------------------------------------------------------|
|----------------------------------------------------------|
|-7/5-------------------------5/9--------------------------|
|----------------------------------------------------------|
|----------------------------------------------------------|
|----------------------------------------------------------|
I reach towards the sky…

|-1--1-1-1-1-1--1--1-1-1-1-------------------------------|
|-3--3-3-3-3-3--3--3-3-3-3-1--1-1-1-1-1--1--1-1-1-1------|
|-2--2-2-2-2-2--2--2-2-2-2-0--0-0-0-0-0--0--0-0-0-0------|
|-0--0-0-0-0-0--0--0-0-0-0-2--2-2-2-2-2--2--2-2-2-2------|
|--------------------------3--3-3-3-3-3--3--3-3-3-3------|
|--------------------------------------------------------|
|
|--------------------------------------------------------|
|--------------------------------------------------------|
|-9/7---------------------7/9----------------------------|
|--------------------------------------------------------|
|--------------------------------------------------------|
|--------------------------------------------------------|


|-0--0-0-0-0-0--0--0-0-0-0-------------------------------|
|-1--1-1-1-1-1--1--1-1-1-1-3--3-3-3-3-3--3--3-3-3-3------|
|-2--2-2-2-2-2--2--2-2-2-2-3--3-3-3-3-3--3--3-3-3-3------|
|-2--2-2-2-2-2--2--2-2-2-2-0--0-0-0-0-0--0--0-0-0-0------|
|-0--0-0-0-0-0--0--0-0-0-0-1--1-1-1-1-1--1--1-1-1-1------|
|--------------------------------------------------------|
|
|--------------------------------------------------------|
|--------------------------------------------------------|
|-9/5---------------------5/7----------------------------|
|--------------------------------------------------------|
|--------------------------------------------------------|
|--------------------------------------------------------|


I wont question why so…

|-1--1-1-1-1-1--1--1-1-1-1-------------------------------|
|-3--3-3-3-3-3--3--3-3-3-3-1--1-1-1-1-1--1--1-1-1-1------|
|-2--2-2-2-2-2--2--2-2-2-2-0--0-0-0-0-0--0--0-0-0-0------|
|-0--0-0-0-0-0--0--0-0-0-0-2--2-2-2-2-2--2--2-2-2-2------|
|--------------------------3--3-3-3-3-3--3--3-3-3-3------|
|--------------------------------------------------------|
|
|--------------------------------------------------------|
|--------------------------------------------------------|
|-7/9/7---------------------7/9--------------------------|
|--------------------------------------------------------|
|--------------------------------------------------------|
|--------------------------------------------------------|


|-0--0-0-0-0-0--0--0-0-0-0-------------------------------|
|-1--1-1-1-1-1--1--1-1-1-1-3--3-3-3-3-3--3--3-3-3-3------|
|-2--2-2-2-2-2--2--2-2-2-2-3--3-3-3-3-3--3--3-3-3-3------|
|-2--2-2-2-2-2--2--2-2-2-2-0--0-0-0-0-0--0--0-0-0-0------|
|-0--0-0-0-0-0--0--0-0-0-0-1--1-1-1-1-1--1--1-1-1-1------|
|--------------------------------------------------------|
|
|--------------------------------------------------------|
|--------------------------------------------------------|
|-9/5---------------------5/7----------------------------|
|--------------------------------------------------------|
|--------------------------------------------------------|
|--------------------------------------------------------|


Cause with all these things we do…

|----------------------------------------------------------|
|-3--3-3-3-3--3-3---3-3-3-3---1--1-1-1-1--1-1--1-1-1-1-----|
|-3--3-3-3-3--3-3---3-3-3-3---0--0-0-0-0--0-0--0-0-0-0-----|
|-0--0-0-0-0--0-0---0-0-0-0---2--2-2-2-2--2-2--2-2-2-2-----|
|-1--1-1-1-1--1-1---1-1-1-1---3--3-3-3-3--3-3--3-3-3-3-----|
|----------------------------------------------------------|

|
|---------------------------------------------------------------|
|---------------------------------------------------------------|
|-7/9/7-------------------------7/5------------------------5/7--|
|---------------------------------------------------------------|
|---------------------------------------------------------------|
|---------------------------------------------------------------|

Heavy bit

|-----------------------------------------------------------|(natural harmonics)
|-----------------------------------------------15-15-15-15-|
|-----------------------------------------------15-15-15-15-|
|-----------------------------------------------------------|
|-0---3---5---6---10-10-10-10---0---3---0-------------------|
|-0---3---5---6---10-10-10-10---0---3---0---0--0------------|
|-0---3---5---6---10-10-10-10---0---3---0---0--0------------|

                                            .  .

|---------------------------------------------------------------|(natural harmonics)
|---------------------------------------------------15-15-15-15-|
|---------------------------------------------------15-15-15-15-|
|---------------------------------------------------------------|
|-0---3---5---6---10-10-10-10---0---3---0-----------------------|
|-0---3---5---6---10-10-10-10---0---3---0---0-0-0-0-------------|
|-0---3---5---6---10-10-10-10---0---3---0---0-0-0-0-------------|

                                            . . . .
Verso 2x:

|-----------------------------------------------------|
|-----------------------------------------------------|
|-----------------------------------------------------|
|-----------------------------------------------------|
|-5p3-5p3-5p3-5p3-/8-----5p3-5p3-5p3-0-0-0-0-0-0-0-0--|
|------------------------------------0-0-0-0-0-0-0-0--|

                                     . . . . . . . .
Pré-Refrão:

|-----------------------------------------------------|
|-----------------------------------------------------|
|-3--3--3-3---3-3--3-3-3-3-5--5--5-5---5-5--5-5-5-5---|
|-3--3--3-3---3-3--3-3-3-3-5--5--5-5---5-5--5-5-5-5---|
|-1--1--1-1---1-1--1-1-1-1-3--3--3-3---3-3--3-3-3-3---|
|-----------------------------------------------------|


Refrão 2x:

|------------------------------------------------------|
|------------------------------------------------------|
|-7--7-7-7-7-7--7--7-7-7-7-5--5-5-5-5-5--5--5-5-5-5----|
|-7--7-7-7-7-7--7--7-7-7-7-5--5-5-5-5-5--5--5-5-5-5----|
|-5--5-5-5-5-5--5--5-5-5-5-3--3-3-3-3-3--3--3-3-3-3----|
|------------------------------------------------------|
|
|------------------------------------------------------|
|------------------------------------------------------|
|-7--7/9-9/101210-10101010-9--9/1010/1214-12-12121212--|
|------------------------------------------------------|
|-5--5/7-7/8-10-8--8-8-8-8-7--7/8-8/10-12-10-10101010--|
|------------------------------------------------------|


|------------------------------------------------------|
|------------------------------------------------------|
|-2--2-2-2-2-2--2--2-2-2-2-3--3-3-3-3-3--3--3-3-3-3----|
|-2--2-2-2-2-2--2--2-2-2-2-3--3-3-3-3-3--3--3-3-3-3----|
|-0--0-0-0-0-0--0--0-0-0-0-1--1-1-1-1-1--1--1-1-1-1----|
|------------------------------------------------------|
|
|------------------------------------------------------|
|------------------------------------------------------|
|-9--9-9-9-9-9--9--1212121210-10101010-9/10/9-7--9--10-|
|------------------------------------------------------|
|-7--7-7-7-7-7--7--10101010-8--8-8-8-8-7/8//7-5--7---8-|
|------------------------------------------------------|
|
|(only on second time)
|------------------------------------------------------| the fifteen is played
|-------------------------------------------11--13--15-| on the first beat of
|------------------------------------------------------| the pre chorus
|------------------------------------------------------|
|------------------------------------------------------|
|------------------------------------------------------|


(Pré-Refrão)

Ponte 2x:

|---------------------------------------------------------------------------|
|---------------------------------------------------------------------------|
|-3--3--3-3-3--3--5--5--5-5-5--5--------------5--5--5-5-7--7--7-7-5--5--5-5-|
|-3--3--3-3-3--3--5--5--5-5-5--5----3--3--3-3-5--5--5-5-7--7--7-7-5--5--5-5-|
|-1--1--1-1-1--1--3--3--3-3-3--3----3--3--3-3-3--3--3-3-5--5--5-5-3--3--3-3-|
|-----------------------------------3--3--3-3-------------------------------|
|


    |(palm mute all the notes apart from the notes on the B string)
|---------------------------------------------------------------------------|
|---3-3-----3-3-----5-5-----5-5----------------5-5-------6-6-------5--5-----|
|----3-3-3---3-3-3---5-5-5---5-5-5---5-5--------5-5-5-----7-7-7-----5--5-5--|
|--3----3--3----3--5----5--5----5-----3-3-3---5----5----7----7----5-----5---|
|-1-------1-------3-------3---------3----3---3---------5---------3----------|
|----------------------------------3----------------------------------------|


Solo:
  The stars in the night…

|---------------------------------------------------------------------------|
|-3--3--3-3-3--3--5--5--5-5-5--5--------------------------------------------|
|-3--3--3-3-3--3--5--5--5-5-5--5--------------------------------------------|
|-3--3--3-3-3--3--5--5--5-5-5--5--0--0--0-0-2--2--2-2-3--3--3-3-5--5--5-5---|
|-1--1--1-1-1--1--3--3--3-3-3--3--0--0--0-0-3--3--3-3-3--3--3-3-5--5--5-5---|
|---------------------------------0--0--0-0-2--2--2-2-3--3--3-3-5--5--5-5---|
|
|---------------------------------------------------------------------------|
|---------------------------------------------------------------------------|
|-3--3--3-3-3--3--5--5--5-5-5--5--7--7--7-7-9--9--9-9-10-10-101012-12-1212--|
|-3--3--3-3-3--3--5--5--5-5-5--5--------------------------------------------|
|-1--1--1-1-1--1--3--3--3-3-3--3--5--5--5-5-7--7--7-7-8---8-8-8-10-10-1010--|
|---------------------------------------------------------------------------|
(the arpeggios of the chords above are played as well with the same pattern as

The arpeggios used in the last part but the notes are changed to fit with this part)


|-----------12-13-12------12-13-15-17b(18)bd17---15b(17)bd15---13----12-13-12-|
|-/15---/15------------/13----------------------------------------------------|
|-----------------------------------------------------------------------------|
|-----------------------------------------------------------------------------|
|-----------------------------------------------------------------------------|
|-----------------------------------------------------------------------------|


|-----------------12-13-12------------------13*--------12-12b(13)bd12----12b(13--|
|-/13-15b(17)--/15----------13-11-10h11p10----------------------------------------|
|------------------------/12----------------14-12-----12-----------12---------|
|------------------------------------------------------------------------------|
|------------------------------------------------------------------------------|
|------------------------------------------------------------------------------|


|-----17----17b(18)bd17---15b(17)bd15-----------------------------------------|
|--13----13-----------------------------15------------------15b(17)-----------|
|-----------------------------------------------------------------------------|
|-----------------------------------------------------------------------------|
|-----------------------------------------------------------------------------|
|-----------------------------------------------------------------------------|
|
|-----------------------------------------------------------------------------|
|----------------------------------------3------------------5-----------------|
|----------------------------------------3------------------5-----------------|
|----------------------------------------3------------------5-----------------|
|----------------------------------------1------------------3-----------------|
|-----------------------------------------------------------------------------|


Dm                   G
Yeah, you've been alone
Dm                           G
I've been gone for far too long
Bb
But with all that we've been through
       C                               Dm
After all this time I'm coming home to you.

Dm              G
Never let it show
Dm                       G
The pain I've grown to know
            Bb
Cause with all these things we do
         C
It don't matter when I'm coming home to you

    Dm                         C
I reach towards the sky I've said my goodbyes
     Am                 Bb
My heart's always with you now
    Dm                   C
I won't question why so many have died
    Am                     Bb
My prayers have made it through yeah

            Bb
Cause with all these things we do
            C                            Dm
It don't matter when I'm coming home to you

Dm                 G
Letters keep me warm
Dm                        G
Helped me through the storm
          Bb
But with all that we've been through
       C                               Dm
After all this time I'm coming home to you.

Refrão:
Dm                          C
I reach towards the sky I've said my goodbyes
     Am                 Bb
My heart's always with you now
   Dm                    C
I won't question why so many have died
     Am                  Bb
My prayers have made it through yeah

           Bb
Cause with all these things we do
           C                            Dm
It don't matter when I'm coming home to you

Bb                   C
I've always been true
                F            C           Dm
I've waited so long just to come hold you
Dm                Bb
I'm making it through
                     C
It's been far too long, we've proven our
 F          C           Dm                 Bb
Love over time's so strong, in all that we do

Pré-Solo:
Bb                  C
The stars in the night,
C                     Dm
 they lend me their light
        Em       F         G         Bb
   to bring me closer to heaven with you

Base solo: (Bb C F C Dm) 2x

Bb
But with all that we've been through
       C                               Dm
After all this time I'm coming home to you

Refrão:
Dm                          C
I reach towards the sky I've said my goodbyes
     Am                 Bb
My heart's always with you now
   Dm                    C
I won't question why so many have died
     Am                  Bb
My prayers have made it through yeah

           Bb
Cause with all these things we do
           C                            Dm
It don't matter when I'm coming home to you
  • 1
  • 2
  • 3
  • 4
  • 5
  • 6
  • 7
  • 8
  • 9
  • 10
  • 11
  • 12
    Acordes para:
      Composición: Avenged SevenfoldColaboración y revision:

      0 comentarios

        mostrar mas comentarios

        ¿Conseguiste tocar?

        53tocaron2aún no

        ¡Grave un vídeo tocando Gunslinger y envie para nosotros!

        00:00 / 00:00
        outros vídeos desta música
        repetirqualidadeautomática
        • automática
        Outro vídeos desta música
          00:00 / 00:00
          automática
          • automática
          1 versión de Contrabajoreproduccionescontribuciones
          2 versiones de Guitar Proformatodownloadscontribución
          cerrarplay/pause subir/bajar velocidad
            acordes
            cerrar
            OK
            Feedback