Enviar cifraEntrar

Nightmare

Avenged Sevenfold

Acordes: Principal
reproducciones 11.528
Tono: D
(Introdução)
Introdução: Guitarra 1 (Base) - Parte 1 de 5

E|---------------------------------------------------
B|---------------------------------------------------
G|---------------------------------------------------
D|---------------------------------------------------
A|---------------------------------------------------
D|-0-0-0-0-0-0-0-0-0-0-0-0-0--0-0-0-0-0-0-0-0-0-0-0-0


Introdução: Guitarra 1 (Base) - Parte 2 de 5

E|---------------------------------------------------
B|---------------------------------------------------
G|---------------------------------------------------
D|---------------------------------------------------
A|---------------------------------------------------
D|-0-0-0-0-0-0-0-0-0-0-0-0-0--0-0-0-0--0-0-0-0-------



Introdução: Guitarra 1 (Base) - Parte 3 de 5

E|---------------------------------------------------
B|---------------------------------------------------
G|---------------------------------------------------
D|---------------------------------------------------
A|---------------------------------------------------
D|-0-0-0-0--0-0-0-0--0-0-0-0---0-0-0-0--0-0-0--------


Introdução: Guitarra 1 (Base) - Parte 4 de 5

E|---------------------------------------------------
B|---------------------------------------------------
G|---------------------------------------------------
D|-0-------------------------------------------------
A|-0-------------------------------------------------
D|-0------0-0-0-0-0-0-0-0-0-0-0-0-0-0-0-0-0-0-0------


Introdução: Guitarra 1 (Base) - Parte 5 de 5

E|---------------------------------------------------
B|---------------------------------------------------
G|---------------------------------------------------
D|-3---5----5---7------------------------------------
A|-1---2----3---4------------------------------------
D|---------------------------------------------------


Introdução: Guitarra 2 - Parte 1 de 3

E|---------------------------------------------------
B|---------------------------------------------------
G|-/14--14-13---13-12---12-10------------------------
D|-----------------------------12----12-------11-14--
A|--------------------------------12-----9/12--------
D|---------------------------------------------------


Introdução: Guitarra 2 - Parte 2 de 3

E|---------------------------------------------------
B|---------------------------------------------------
G|-12--14-15-----------------------------------------
D|---------------------------------------------------
A|---------------------------------------------------
D|---------------------------------------------------


Introdução: Guitarra 2 - Parte 3 de 3

E|---------------------------------------------------
B|----------------------------13/15-13--12-13-15b17--
G|-12-13-14-15---15-14-13-12-------------------------
D|---------------------------------------------------
A|---------------------------------------------------
D|---------------------------------------------------


Introdução: Guitarra 3 - Parte 1 de 3 (3X)

E|---------------------------------------------------
B|---------------------------------------------------
G|---------------------------------------------------
D|-7--7-6--6-5--5--3-----------------5--7-8----------
A|--------------------5--0-5-----4-7-----------------
D|---------------------------4/7---------------------


Introdução: Guitarra 3 - Parte 2 de 3

E|---------------------------------------------------
B|---------------------------------------------------
G|---------------------------------------------------
D|-7--7-6--6-5--5--3-----------------5-6-7-8---------
A|--------------------5--0-5-----4-7-----------------
D|---------------------------4/7---------------------


Introdução: Guitarra 3 - Parte 3 de 3

E|---------------------------------------------------
B|---------------------------------------------------
G|---------5/7-5---4-5-7b9---------------------------
D|-8-7-6-5-------------------------------------------
A|---------------------------------------------------
D|---------------------------------------------------


Introdução: Guitarra 4 - Parte 1 de 2 (3X)

E|---------------------------------------------------
B|---------------------------------------------------
G|-----------6-9-------------------------------------
D|-------5-8-----------------------------------------
A|-2/4-7---------------------------------------------
D|---------------------------------------------------


Introdução: Guitarra 4 - Parte 1 de 2 (3X)

E|---------------------------------------------------
B|---------------------------------------------------
G|-----------6-9--7-6-5-4-4/10-9-7-9-10b12-----------
D|-------5-8-----------------------------------------
A|-2/4-7---------------------------------------------
D|---------------------------------------------------


(Primeira Parte)
Nightmare!
(Now your nightmare comes to life)

(Riff 1 Primeira Parte)
Dragged ya down below down to the devil's show,
To be his guest forever,
Peace of mind is less than never
Hate to twist your mind, but God ain't on your side
An old acquaintance severed,
Burn the world your last endeavor.

(Riff 2 Primeira Parte)
Flesh is burning, you can smell it in the air,
Cause men like you have such an easy soul to steal
So stand in line while they ink numbers in your head,
You're now a slave until the end of time here.
Nothing stops the madness turning,
haunting, yearning, pull the trigger!

Primeira Parte: Guitarra 1 (Base) - Parte 1 de 6

E|---------------------------------------------------
B|---------------------------------------------------
G|---------------------------------------------------
D|---------------------------------------------------
A|---------------------------------------------------
D|-0-0-0-0-0-0-0-0-0-0-0-0-0-0-0-0-------------------


Primeira Parte: Guitarra 1 (Base) - Parte 2 de 6

E|---------------------------------------------------
B|---------------------------------------------------
G|---------------------------------------------------
D|---------------------------------------------------
A|---------------------------------------------------
D|-0-0-0-0-0-0-0-0-/~--------------------------------


Primeira Parte: Guitarra 1 (Base) - Parte 3 de 6

E|---------------------------------------------------
B|---------------------------------------------------
G|---------------------------------------------------
D|-3b--0---0-0-0-0-0-0-3b--0---0-0-0-0-0-0-3b--0-----
A|-3b--0---0-0-0-0-0-0-3b--0---0-0-0-0-0-0-3b--0-----
D|-3b--0---0-0-0-0-0-0-3b--0---0-0-0-0-0-0-3b--0-----



Primeira Parte: Guitarra 1 (Base) - Parte 4 de 6

E|---------------------------------------------------
B|---------------------------------------------------
G|---------------------------------------------------
D|-0-0-0-0-0-0---------------------------------------
A|-0-0-0-0-0-0---------------------------------------
D|-0-0-0-0-0-0-6-3-5-3-5-3-0-3--6-3-5-3-5-3-0-3------


Primeira Parte: Guitarra 1 (Base) - Parte 5 de 6

E|---------------------------------------------------
B|---------------------------------------------------
G|---------------------------------------------------
D|-3b---0-0-0-3-0-0-3-0-0-3-0-0-3-0-3-0-0-3-0-0-3-0--
A|-3b---0-0-0-3-0-0-3-0-0-3-0-0-3-0-3-0-0-3-0-0-3-0--
D|-3b—--0-0-0-3-0-0-3-0-0-3-0-0-3-0-3-0-0-3-0-0-3-0--


Primeira Parte: Guitarra 1 (Base) - Parte 6 de 6

E|---------------------------------------------------
B|---------------------------------------------------
G|---------------------------------------------------
D|---------------------------------------------------
A|---------------------------------------------------
D|-6-3-5-3-5-3-0-3--6-3-5-3-5-3-0-3------------------


Primeira Parte - Guitarra 2

E|---------------------------------------------------
B|---------------------------------------------------
G|---------------------------------------------------
D|---------------------------------------------------
A|-/12-11-10-8-5----/12-11-10------------------------
D|---------------------------------------------------


Primeira Parte - Parte 4 de 5(Adaptação)

E|---------------------------------------------------
B|---------------------------------------------------
G|---------------------------------------------------
D|-3b---/7-6-5-3p0-0-3p0-0-3p0-3p0---/7-6-5----------
A|-3b----------3p0-0-3p0-0-3p0-3p0-------------------
D|-3b—---------3p0-0-3p0-0-3p0-3p0-------------------


Primeira Parte - Parte 5 de 5(Adaptação)

E|---------------------------------------------------
B|---------------------------------------------------
G|---------------------------------------------------
D|---------------------------------------------------
A|---------------------------------------------------
D|-6-3-5-3-5-3-0-3--6-3-5-3-5-3-0-3------------------


You should have known
D5                   C5  F5              A#5
   You should have known    the price of evil
D5                   C5             F5         A#5
   And it hurts to know that you belong here, yeah.
A5
ooooh it's your fuckin' nightmare!
Refrão - Parte 1 de 2

 D5    C5    F5   A#5
E|-----------------------------------------
B|-----------------------------------------
G|-----------------------------------------
D|-0-----5-----3----3----------------------
A|-0-----3-----3----1----------------------
D|-0-----------3---------------------------


Refrão - Parte 2 de 2

 D5    C5    F5   A#5  A5
E|-----------------------------------------
B|-----------------------------------------
G|-----------------------------------------
D|-0-----5-----3----3----5-----------------
A|-0-----3-----3----1----5-----------------
D|-0-----------3---------5-----------------



Refrão - Parte 1 de 2 - Variação

 D5        C5        F5        A#5
E|-----------------------------------------
B|-----------------------------------------
G|-----------------------------------------
D|-0-0-0-0-0-5-5-5-5-5-3-3-3-3-3-3-3-3-3-3-
A|-0-0-0-0-0-3-3-3-3-3-3-3-3-3-3-1-1-1-1-1-
D|-0-0-0-0-0-----------3-3-3-3-3-----------


Refrão - Parte 2 de 2 - Variação

 A5
E|-----------------------------------------
B|-----------------------------------------
G|-----------------------------------------
D|-5-------5-------5----5------------------
A|-5--5-5--5--5-5--5--5-5------------------
D|-5--5-5--5--5-5--5--5-5------------------


Refrão - Guitarra 2 - Parte 1 de 3

E|-----------------------------------------
B|-----------------------------------------
G|-7--7-7--7-7--9--9-9--9-9--10-10-10-10-10
D|-----------------------------------------
A|-5--5-5--5-5--7--7-7--7-7--7--7--7--7--7-
D|-----------------------------------------


Refrão - Guitarra 2 - Parte 2 de 3

E|-----------------------------------------
B|-----------------------------------------
G|-3--3-3--3-3-----------------------------
D|-----------------------------------------
A|-1--1-1--1-1-----------------------------
D|-----------------------------------------


Refrão - Guitarra 2 - Parte 3 de 3

E|-----------------------------------------
B|-----------------------------------------
G|-9--9-9--9-9--9--------------------------
D|-----------------------------------------
A|-7--7-7--7-7--7--------------------------
D|-----------------------------------------


(Primeira Parte com variação na letra)
(While your nightmare comes to life)

(Riff 1 Primeira Parte)
Can't wake up and sweat,
Cause it ain't over yet,
Still dancing with your demons,
Victim of your own creation.
Beyond the will to fight,
Where all that's wrong is right
Where hate don't need a reason

Loathing self-assassination.


(Riff 2 Primeira Parte)
You've been lied to just to rape you of your site,
And now they have the nerve to tell you how to feel
So sedated as they medicate your brain
And while ya slowly go insane they tell you
"Given with the best intentions
Help you with your complications."

(Repete Refrão com variação)
D5                   C5  F5              A#5
   You should have known    the price of evil
D5                   C5             F5         A#5
   And it hurts to know that you belong here, yeah.
D5            C5   F5                A#5
   No one to call,     everybody to fear,
D5              C5              F5        A#5
   Your tragic fate is looking so clear, yeah
A5
ooooh it's your fuckin' nightmare! ha ha ha ha!!

(Introdução)
Introdução 2 - Guitarra 1 - Parte 1 de 3

E|-/17-17--16-16--15-15--13--------------------------
B|---------------------------15----------14-15-17-18-
G|---------------------------------12-15-------------
D|------------------------------14-------------------
A|---------------------------------------------------
D|---------------------------------------------------


Introdução 2 - Guitarra 1 - Parte 2 de 3

E|-/17-17--16-16--15-15--13--------------------------
B|--------------------------15----15-----------------
G|-----------------------------14--------12-14-15-16-
D|------------------------------------15-------------
A|---------------------------------------------------
D|---------------------------------------------------


Introdução 2 - Guitarra 1 - Parte 3 de 3

E|---------------------------------------------------
B|-13-15--15-14-13-12--15/18-17-16-17-18b20----------
G|---------------------------------------------------
D|---------------------------------------------------
A|---------------------------------------------------
D|---------------------------------------------------


Introdução 2 - Guitarra 2 - Parte 1 de 3

E|---------------------------------------------------
B|-10/18-18-17-17-16-16-15----------------------14-15
G|-------------------------14\---------12-14-15------
D|-----------------------------9/11-14---------------
A|---------------------------------------------------
D|---------------------------------------------------


Introdução 2 - Guitarra 2 - Parte 2 de 3

E|---------------------------------------------------
B|-10/18-18-17-17-16-16-15---------------------------
G|------------------------14---14--------12-13-14-15-
D|--------------------------15---12-14-15------------
A|---------------------------------------------------
D|---------------------------------------------------


Introdução 2 - Guitarra 2 - Parte 3 de 3

E|---------------------------------------------------
B|-------------13/15-13---12-13-15b17----------------
G|-15-14-13-12---------------------------------------
D|---------------------------------------------------
A|---------------------------------------------------
D|---------------------------------------------------


Introdução 2 - Guitarra 3

E|---------------------------------------------------
B|---------------------------------------------------
G|---------------------------------------------------
D|-0--0--3---5----5---7------------------------------
A|-0--0--1---2----3---4------------------------------
D|-0--0----------------------------------------------


(Solo)
Solo - Guitarra 1 - Parte 1 de 9

E|-17~---------------------12-13-14-15-16------------
B|----------------13-14-15---------------------------
G|----12-13-14-15------------------------------------
D|---------------------------------------------------
A|---------------------------------------------------
D|---------------------------------------------------


Solo - Guitarra 1 - Parte 2 de 9

E|----------------------11-12-13-14-15~-15b17r15-13--
B|-------------13-14-15------------------------------
G|-12-13-14-15---------------------------------------
D|---------------------------------------------------
A|---------------------------------------------------
D|---------------------------------------------------


Solo - Guitarra 1 - Parte 3 de 9

E|-17p13--------------17p13--------------------------
B|--------15p14-------------15-----------------------
G|--------------15p14----------14----------14-15-14~-
D|--------------------------------15----15-----------
A|-----------------------------------17--------------
D|---------------------------------------------------


Solo - Guitarra 1 - Parte 4 de 9

E|--------17-18-17-----------------------------------
B|-15/18-----------20b22r20--15--18-17-18-20-20b22~--
G|---------------------------------------------------
D|---------------------------------------------------
A|---------------------------------------------------
D|---------------------------------------------------


Solo - Guitarra 1 - Parte 5 de 9

E|---------------------------------------------------
B|-15...-18..-13...-20...-12...--18...---------------
G|---------------------------------------------------
D|---------------------------------------------------
A|---------------------------------------------------
D|---------------------------------------------------


Solo - Guitarra 1 - Parte 6 de 9

E|---------------------------------------------------
B|-10.../13...\10...\9...\6...-----------------------
G|---------------------------------------------6-7-6-
D|-------------------------------------5-6-5-6-------
A|-----------------------------5-8-5-8---------------
D|---------------------------------------------------


Solo - Guitarra 1 - Parte 7 de 9

E|-----------10-13/17p13-----------------------------
B|--------10-------------17-16-15-14-------15-14-----
G|-7-7/10----------------------------15-14-----------
D|---------------------------------------------------
A|---------------------------------------------------
D|---------------------------------------------------


Solo - Guitarra 1 - Parte 8 de 9


E|----------------12-13-14-15--15-14-13-12-----------
B|-15--13-14-15-16--------------------------16-15-14-
G|---------------------------------------------------
D|---------------------------------------------------
A|---------------------------------------------------
D|---------------------------------------------------


Solo - Guitarra 1 - Parte 9 de 9                1/2

E|------------------15-16-17-18-17-------------------
B|-13---15-16-17-18----------------------------------
G|---------------------------------------------------
D|---------------------------------------------------
A|---------------------------------/12-12--/11-/10---
D|---------------------------------------------------


Solo - Guitarra 1 - Parte 9 de 9                2/2

E|---------------------------------------------------
B|---------------------------------------------------
G|---------------------------------------------------
D|---------------------------------------------------
A|-/8/5p0h5\/----------------------------------------
D|---------------------------------------------------


Solo - Guitarra 2 - Parte 1 de 7
harm...........................

E|-----------------------17-18-17--------------------
B|-----------------15-18-----------------------------
G|-------14-15-14------------------------------------
D|----15---------------------------------------------
A|-17------------------------------------------------
D|---------------------------------------------------


Solo - Guitarra 2 - Parte 2 de 7

E|------------------19...--------17...---------------
B|-18...-22..-17...-------15...----------------------
G|---------------------------------------------------
D|---------------------------------------------------
A|---------------------------------------------------
D|---------------------------------------------------


Solo - Guitarra 2 - Parte 3 de 7

E|---------------------------------------------------
B|-11.../18...\11...\12...\10...---------------------
G|---------------------------------------------------
D|-----------------------------------------9-10-9-10-
A|-------------------------------8-12-8-12-----------
D|---------------------------------------------------


Solo - Guitarra 2 - Parte 4 de 7

E|--------------------13-15/20p17--------------------
B|-----------------15-------------20-19-18-17--------
G|-9-10-9-10-10/14----------------------------19-----
D|------------------------------------------------19-
A|---------------------------------------------------
D|---------------------------------------------------


Solo - Guitarra 2 - Parte 5 de 7

E|-------------------------15-16-17-18--18-17-16-15--
B|-18-17---18--15-16-17-18---------------------------
G|---------------------------------------------------
D|---------------------------------------------------
A|---------------------------------------------------
D|---------------------------------------------------


Solo - Guitarra 2 - Parte 6 de 7

E|-------------------------15-16-17-18---------------
B|20-19-18-17--15-16-17-18-------------15-14---------
G|---------------------------------------------------
D|---------------------------------------------------
A|---------------------------------------------------
D|---------------------------------------------------


Guitarra 2 - Parte 7 de 7

E|---------------------------------------------------
B|---------------------------------------------------
G|---------------------------------------------------
D|-/10--/10--/9--/8---7/3p0h3------------------------
A|---------------------------------------------------
D|---------------------------------------------------


Solo  Base - Parte 1 de 2

E|---------------------------------------------------
B|---------------------------------------------------
G|---------------------------------------------------
D|-0------3-0-------3--0-----3-----------------------
A|-0------3-0-------3--0-----3-----------------------
D|-0--0-0-3-0-0-0-0-3--0-0-0-3-----------------------


Solo  Base - Parte 2 de 2

E|---------------------------------------------------
B|---------------------------------------------------
G|---------------------------------------------------
D|-0------3-0-------3--0-----3--3--5--5--7-----------
A|-0------3-0-------3--0-----3--1--2--3--4-----------
D|-0—0-0--3-0-0-0-0-3--0-0-0-3-----------------------
(ha-ha-ha-ha-ha-ha)


(Segunda Parte)
(Riff Segunda Parte
 D5
Fight!  Not to fail! Not to fall!
Or you'll end up like the others.
Die!  Die again!  Drenched in sin!
With no respect for another
Oh!

Down!  Feel the fire!  Feel the hate!
Your pain is what we desire.
Lost!  Hit the wall!  Watch you crawl!
Such a replaceable liar.

Segunda Parte - Riff Segunda Parte - Parte 1 de 2

E|---------------------------------------------------
B|---------------------------------------------------
G|---------------------------------------------------
D|-0--------0-----0-----0-----0---0-----0-----0------
A|-0--------0-----0-----0-----0---0-----0-----0------
D|-0—0-0-0--0-0-0-0-0-0-0-0-0-0-0-0-0-0-0-0-0-0-0----


Segunda Parte - Riff Segunda Parte - Parte 2 de 2

E|---------------------------------------------------
B|---------------------------------------------------
G|---------------------------------------------------
D|-0-----0-----0-------------------------------------
A|-0-----0-----0-------------------------------------
D|-0-0-0-0-0-0-0-0-----------------------------------


Riff Segunda Parte - Variação Guitarra 1- Parte 2 de 2  1/3

E|---------------------------------------------------
B|---------------------------------------------------
G|-----------------------------14-15-14----------14--
D|-0-----0-----0---------14-15----------15-14-15-----
A|-0-----0-----0---13-17-----------------------------
D|-0-0-0-0-0-0-0-0----------------------------------


Riff Segunda Parte - Variação Guitarra 1- Parte 3 de 3  2/3

E|----------------------------------15-17-18-17------
B|----14-15-14----------14-15-17-18------------------
G|-15----------15-14-15------------------------------
D|---------------------------------------------------
A|---------------------------------------------------
D|---------------------------------------------------


Riff Segunda Parte - Variação Guitarra 1- Parte 3 de 3  3/3

E|---------------------------------------------------
B|---------------------------------------------------
G|---------------------------------------------------
D|---------------------------------------------------
A|-/12-/12--/11-/10--/8\5p0h5\-/---------------------
D|---------------------------------------------------


Riff Segunda Parte - Variação Guitarra 2 - Parte 3 de 3  1/3

E|---------------------------------------------------
B|---------------------------------------------------
G|-----------------------------14-15-14----------14--
D|-0-----0-----0---------14-15----------15-14-15-----
A|-0-----0-----0---13-17-----------------------------
D|-0-0-0-0-0-0-0-0-----------------------------------


Riff Segunda Parte - Variação Guitarra 2 - Parte 3 de 3  2/3

E|----------------------------15-13------------------
B|----14-15-14----------14-15------------------------
G|-15----------15-14-15------------------------------
D|---------------------------------------------------
A|---------------------------------------------------
D|---------------------------------------------------


Riff Segunda Parte - Variação Guitarra 2 - Parte 3 de 3  3/3

E|---------------------------------------------------
B|---------------------------------------------------
G|---------------------------------------------------
D|--/10--/10--/9--/8--/7/3p0h3-----------------------
A|---------------------------------------------------
D|---------------------------------------------------


(Terceira Parte)

And I know you hear their voices
(calling from above),
And I know they may seem real
(these signals of love),
But our life's made up of choices
(some without appeal),

They took for granted your soul
And it's ours now to steal
As your nightmare comes to life
Terceira Parte - Riff Terceira Parte 1 de 2

E|---------------------------------------------------
B|---------------------------------------------------
G|---------------------------------------------------
D|-3--3--3--3--5--5--5--5----------------------------
A|-1--1--1--1--3--3--3--3----------------------------
D|---------------------------------------------------


Terceira Parte - Riff Terceira Parte 2 de 2

E|---------------------------------------------------
B|---------------------------------------------------
G|---------------------------------------------------
D|-3--3--5--5--5--5--7--7----------------------------
A|-1—-1--2--2--3--3--4--4----------------------------
D|---------------------------------------------------


(Repete Refrão)
D5                   C5  F5              A#5
   You should have known    the price of evil
D5                   C5             F5         A#5
   And it hurts to know that you belong here, yeah.
D5            C5   F5                A#5
   No one to call,     everybody to fear,
D5              C5              F5        A#5
   Your tragic fate is looking so clear, yeah
A5
ooooh it's your fuckin' nightmare!
  • 1
  • 2
  • 3
  • 4
  • 5
  • 6
  • 7
  • 8
  • 9
  • 10
  • 11
  • 12
    Acordes para:

      0 comentarios

        mostrar mas comentarios

        ¿Conseguiste tocar?

        126tocaron4aún no

        ¡Grave un vídeo tocando Nightmare y envie para nosotros!

        00:00 / 00:00
        outros vídeos desta música
        repetirqualidadeautomática
        • automática
        Outro vídeos desta música
          Capítulos
          • Início
          • Afinação
          • Tocando a música
          • Configurações pedais e amplificador
          • Tocando Introdução
          • Ensinado Intro - Guitarra 1
          • Ensinado Intro - Guitarra 2
          • Ensinado Intro - Guitarra 3
          • Ensinado Intro - Guitarra 4
          • Tocando Primeira Parte
          • Ensinando 1ª Parte - Guitarra 1
          • Ensinando 1ª Parte - Guitarra 2
          • Power Chords do Refrão
          • Tocando Refrão
          • Ensinando Refrão - Guitarra 1
          • Ensinando Refrão - Guitarra 2
          • Tocando Solo
          • Ensinando Intro 2 - Guitarra 1
          • Ensinando Intro 2 - Guitarra 2
          • Ensinando Solo Base
          • Ensinando Solo - Guitarra 1
          • Ensinando Solo - Guitarra 2
          • Tocando Repetição - Final
          • Ensinando 2ª Parte - Guitarra 1
          • Ensinando 2ª Parte - Guitarra 2
          • Ensinando Terceira Parte
          • Encerramento
          00:00 / 00:00
          automática
          • automática
          1 versión de Contrabajoreproduccionescontribuciones
          1 versión de Bateríareproduccionescontribuciones
          1 versión de Partiturasformatodownloadscontribución
          cerrarplay/pause subir/bajar velocidad
            acordes
            cerrar
            OK
            Feedback