Cifra Club

So Far Away

Avenged Sevenfold

Tablatura: Principal
reproducciones 49.848
Tono: G
Em
   Never feared for anything,
Em
   Never shamed but never free
    G                   D
A light that healed a broken heart
     Bm11         C
With all that it could

Em
   Live the life so endlessly
Em9                            Em
    Saw beyond what others see
    G                  D
I tried to heal your broken heart
     Bm11        C
With all that I could

 C
Will you stay
 D
Will you stay away forever?


Refrão:
 Em                       G
How do I live without the ones I love?
 Am                                G          D
Time still turns the pages of the book, it's burned
  Em                  G
Place and time always on my mind
   Am                                C     D
I have so much to say but you're so far away

Em
   Plans of what our futures hold
Em
   Foolish lies of growing old
    G                D
It seems we're so invincible
          Bm11       C
But the truth is so cold

Em
   A final song, our last request
Em9                              Em
    Another chapter laid to rest
 G               D
Now and then I try to find
    Bm11       C
A place in my mind
       C
Where you can stay
 D
You can stay awake forever


 Em                       G
How do I live without the ones I love?
 Am                                 C         D
Time still turns the pages of the book, it's burned
  Em                  G
Place and time always on my mind
   Am                                C     D
I have so much to say but you're so far away


  E
Sleep tight
     C
I'm not afraid
    Am                     Em
The ones that we love are here with me
 E
Lay away
    C
A place for me
           D
'Cause as soon as I'm done
            C
I'll be on my way
    D
To live eternally


Base do Solo:
    E    C    Am    G    E    C    D    C9  D


Solo:
E|------------------------------------------------------------|
B|--------9-12--12b13r12-----9/10-10-12-10------10-12p10------|
G|--7/9~~----------------12----------------9-12----------12---|
D|------------------------------------------------------------|
A|------------------------------------------------------------|
E|------------------------------------------------------------|

E|------------------------------------------------------------|
B|--------9-12--12b13r12-----12/15-15-17-17-19-19--19/20-19---|
G|--7/9~~----------------12-----------------------------------|
D|------------------------------------------------------------|
A|------------------------------------------------------------|
E|------------------------------------------------------------|

E|-----15/17-15-14-------------|
B|--15-------------15-18b19----|
G|-----------------------------|
D|-----------------------------|
A|-----------------------------|
E|-----------------------------|


Refrão:
 Em                       G
How do I live without the ones I love?
 Am                                 C         D
Time still turns the pages of the book, it's burned
 Em                    G
Place and time, always on my mind
         Am
And the light you left remains
           C        D
But it so hard to stay
        Am                                C    D   Em
When I have so much to say and you're so far away


Dedilhado

E|-0-----3p0-------2----3------------------
B|-0-0-------0-0---3--3---3--1--------1----
G|-----0-----------0---------2--2-------2--
D|-----------------0---------2----2--------
A|---------------------------0------0------
E|-0-----0---------------------------------

E|-7----5----3---0---3p0--2-5p2------------
B|-------------0---0----------------0------
G|------------------------------2----------
D|---0----0-----------------------4--------
A|------------------------0----------------
E|-3----2----0-----------------------------

E|---0-3-----------------------------------
B|-0---------------------------------------
G|----------------0------------------------
D|-------------2--2-2----------------------
A|-3-----3--3--3--3-3----------------------
E|-----------------------------------------


Solo final (se repete até o final por trás da melodia)

E|----------------------------------------------------------------|
B|--12/17-17~-19-20-----15p13-12-----------------11/12-12---------|
G|-----------------17-----------13/14--12-12-11-----------9-9/12--|
D|----------------------------------------------------------------|
A|----------------------------------------------------------------|
E|----------------------------------------------------------------|

E|-----------------------------------------|
B|-----------------------------------------|
G|-/12~-11~~--/16-16\9/12~-----------------|
D|-----------------------------------------|
A|-----------------------------------------|
E|-----------------------------------------|



Em
   I love you
D9/F#
      You were ready
Am                G   D9/F#      Em   D9/F#   C9
   The pain is strong and urges rise
Em
   But I see you
D9/F#
      When it lets me
Am               G          D9/F#    Em    D9/F#   C9
   Your pain is gone, your hands  untied
 Em  D9/F#  C9   Em          D         C
So  far   away      (And I needed to know)
 Em  D9/F#  C9   Em          D                       C
So  far   away      (And I need you to need you to know)

0 comentarios

    mostrar más comentarios

    ¿Conseguiste tocar?

    580tocaron6aún no

    ¡Graba un vídeo tocando So Far Away y envianoslo!

    00:00 / 00:00
    outros vídeos desta música
    repetirqualidadeautomática
    Outro vídeos desta música
      00:00 / 00:00
      automática
      Capítulos
      • Início
      • Tocando a música
      • Configuração dos Efeitos
      • Acordes da Primeira Parte
      • Tocando Primeira Parte
      • Ensinando Primeira Parte (Violão)
      • Ensinando Primeira Parte (Guitarra)
      • Acordes do Refrão
      • Tocando Refrão e Repetições
      • Ensinando Refrão (Violão)
      • Ensinando Refrão (Guitarra)
      • Acordes da Segunda Parte e Solo
      • Tocando Segunda Parte
      • Ensinando Segunda Parte (Violão)
      • Ensinando Segunda Parte (Guitarra)
      • Ensinando Primeiro Solo
      • Acordes da Terceira Parte
      • Tocando Terceira Parte e Segundo Solo
      • Ensinando Terceira Parte - Dedilhado (Violão)
      • Ensinando Base do Segundo Solo (Violão)
      • Ensinando Segundo Solo
      • Encerramento
      OK