Cifra Club

Cuando Volveras Intro

Aventura

Tablatura: Principal (guitarra)
tono: Bb
Track: 1
Album: Unplugged

Tuning: Standard (EADGBe)
Distortion Level: None (Acoustic)

INTRO
e|---13-13-11-11--|------11h13p11--|--13-13-11-11--|------11h13p11--|
B|----------------|----13----------|---------------|----13----------|
G|·---------------|--12------------|---------------|--13------------|
D|·---------------|----------------|---------------|----------------|
A|----------------|----------------|---------------|----------------|
E|----------------|----------------|---------------|----------------|

e|--15-15-13-13--|------13h15p13--|--18-18-18-15-20--|--11---|
B|---------------|----15----------|------------------|--13---|
G|---------------|--15------------|------------------|--12--·|
D|---------------|----------------|------------------|------·|
A|---------------|----------------|------------------|-------|
E|---------------|----------------|------------------|-------|

======================
Tablature Legend
======================
| \  Slide up
| /  Slide down
| PM Palm mute
| h  Hammer-on
| p  Pull-off
| ~  Vibrato
| +  Harmonic
| x  Dead note
======================

Tabbed by: Roberto Aleman
E-mail: R*
441 reproducciones
    • ½ Tono
    • A
    • Bb
    • B
    • C
    • Db
    • D
    • Eb
    • E
    • F
    • F#
    • G
    • Ab
  • Adicionar à lista

    0 comentarios

    Ver todos os comentários

    ¿Conseguiste tocar?

    0 Tocaram 0 Ainda não

    Grave um vídeo tocando Cuando Volveras Intro e nos envie!

    00:00 / 00:00
    outros vídeos desta música
    repetir qualidade Automático
    Outros vídeos desta música
    00:00 / 00:00
    Automático
    OK