Cifra Club

Can't Catch Me

Avicii

Cifrado: Principal (guitarra y guitarra eléctrica)
tono: Eb (con acordes en la forma de D) Capotraste en 1ª casa
[Intro] Em  D/F#  G  C  G  D/F#
        Em  D/F# G  C  D9(11)

Em              D/F#       G      C
  Papa, he was gone tryna make a dime
              G                   D/F#   Em
Mama kept us warm when there was no sunshine
             D/F#         G      C
I was busy building up a reputation
               D9(11)            Em
Did a lot of things out of desperation
               D/F#          G   C
Back up on my feet, got the motivation
                G           D/F#
Now I found my faith and a good vibration

( Em  D/F#  G  C  G  D/F# )
( Em  D/F#  G  C  D9(11) )

            Em            D/F#
Search for you, lover, creation
  G                  C                           G     D/F#
When you're feeling down in this place, just replace them
        Em                             D/F#    G
Keep a vision on the one you've been chasing
          C                            D9(11)
When the time comes we'll run to the station
            Em                         D/F#  G
We've been laced with the powers of creation
             C                          G     D/F#
So when the sun sets, you bet you must face them
           Em                             D/F#   G
Remember when we were running 'cross the nation
         C                       D9(11)
We were living for the here and now

           Em    G
You can't catch me
         C                        D9(11)
I'll be gone by the time they come
           Em    G
You can't catch me
     C                 D9(11)
The war is already won
                  Em                      G
Even though the children have sold their guns
         C                      D9(11)
We must remember the fallen ones
   Em               G      C    D9(11)
Remember the fallen ones

[Solo] Em  G  C  D9(11)
       Em  G  C  D9(11)
       Em  G  C  D9(11)
       Em  G  C  D9(11)

E|---------------------------------------------------3-------2---------------|
B|-----3-------3-------3---3---5-----3-------3-------------------3-----------|
G|---4-----2p0-----2h4-------------4---4-2-0---4-2-0-------------------------|
D|---------------------------------------------------------------------------|
A|---------------------------------------------------------------------------|
E|---------------------------------------------------------------------------|

E|---------------------------------------------------------------------------|
B|-----3-------5-------3---3---3-----3-------3-------3-----------3-----------|
G|---4-----2p0-----2h4-------------4---4-2-0---4-2-0---------0---------------|
D|---------------------------------------------------------------------------|
A|---------------------------------------------------------------------------|
E|---------------------------------------------------------------------------|

E|---------------------------------------------------3-------2---------------|
B|-----3-------3-------3---3---5-----3-------3-------------------3-----------|
G|---4-----2p0-----2h4-------------4---4-2-0---4-2-0-------------------------|
D|---------------------------------------------------------------------------|
A|---------------------------------------------------------------------------|
E|---------------------------------------------------------------------------|

E|---------------------------------------------------------------------------|
B|-----3-------5-------3---3---3-----3-------3-------3-----------3-----------|
G|---4-----2p0-----2h4-------------4---4-2-0---4-2-0---------0---------------|
D|---------------------------------------------------------------------------|
A|---------------------------------------------------------------------------|
E|---------------------------------------------------------------------------|

 Em            D/F#       G        C
Raised in the capital of Port-au-Prince
                G                D/F#    Em
Born with them pillars and them tenements
              D/F#        G     C
Papa used to run from the immigration
                   D9(11)         Em
When we got to the United Station
               D/F#             G     C
A teen under pressure, had to blend in
             G              D/F#
Before the guitar I had to back in

( Em  D/F#  G  C  G  D/F# )
( Em  D/F#  G  C  D9(11) )

            Em            D/F#
Thanks for you, lover, creation
  G                  C                           G     D/F#
When you're feeling down in this place, just replace them
        Em                             D/F#    G
Keep a vision on the one you've been chasing
          C                            D9(11)
When the time comes we'll run to the station
            Em                         D/F#  G
We've been laced with the powers of creation
             C                          G     D/F#
So when the sun sets, you bet you must face them
           Em                             D/F#   G
Remember when we were running 'cross the nation
         C                       D9(11)
We were living for the here and now

           Em    G
You can't catch me
         C                        D9(11)
I'll be gone by the time they come
           Em    G
You can't catch me
     C                 D9(11)
The war is already won
                  Em                      G
Even though the children have sold their guns
         C                      D9(11)
We must remember the fallen ones
   Em               G      C    D9(11)
Remember the fallen ones

( Em  G  C  D9(11) )

[Solo] Em  G  C  D9(11)
       Em  G  C  D9(11)
       Em  G  C  D9(11)
       Em  G  C  D9(11)

E|---------------------------------------------------3-------2---------------|
B|-----3-------3-------3---3---5-----3-------3-------------------3-----------|
G|---4-----2p0-----2h4-------------4---4-2-0---4-2-0-------------------------|
D|---------------------------------------------------------------------------|
A|---------------------------------------------------------------------------|
E|---------------------------------------------------------------------------|

E|---------------------------------------------------------------------------|
B|-----3-------5-------3---3---3-----3-------3-------3-----------3-----------|
G|---4-----2p0-----2h4-------------4---4-2-0---4-2-0---------0---------------|
D|---------------------------------------------------------------------------|
A|---------------------------------------------------------------------------|
E|---------------------------------------------------------------------------|

E|---------------------------------------------------3-------2---------------|
B|-----3-------3-------3---3---5-----3-------3-------------------3-----------|
G|---4-----2p0-----2h4-------------4---4-2-0---4-2-0-------------------------|
D|---------------------------------------------------------------------------|
A|---------------------------------------------------------------------------|
E|---------------------------------------------------------------------------|

E|---------------------------------------------------------------------------|
B|-----3-------5-------3---3---3-----3-------3-------3-----------3-----------|
G|---4-----2p0-----2h4-------------4---4-2-0---4-2-0---------0---------------|
D|---------------------------------------------------------------------------|
A|---------------------------------------------------------------------------|
E|---------------------------------------------------------------------------|
00:00 / 00:00
Otros videos de esta canción
Repetir
Otros videos de esta canción
Composición de Bergling / Matthew Miller / Mike Einziger / Wyclef Jean
Colaboración y revisión:
  • Thiago Almeida
  • Mikael Reis
126 vistas
    • ½ Tono
    • A
    • Bb
    • B
    • C
    • Db
    • D
    • Eb
    • E
    • F
    • F#
    • G
    • Ab
  • Agregar a la lista

    0 comentarios

    Ver todos los comentarios

    ¿Lograste tocar?

    0 Tocaron 0 Aún no

    ¡Graba un video tocando Can't Catch Me y envíanoslo!

    00:00 / 00:00
    OK