Cifra Club

Avicii vs Nicky Romero - I Could Be The One

Avicii

Cifrado: Principal (guitarra y guitarra eléctrica)
tono: A
[Intro] F#m

 F#m           A                  D
Do you think about me when you're all alone?
      Bm              C#m            D
The things we used to do, we used to be
F#m            A                D
I could be the one to make you feel that way
Bm            C#m              D
I could be the one to set you free

 F#m           A                 D
Do you think about me when the crowd is gone?
   Bm           C#m            D
It used to be so easy, you and me
F#m            A                D
I could be the one to make you feel that way
Bm            C#m              D
I could be the one to set you free

[Solo] F#m  A  D
       Bm  C#m  D
       F#m  A  D
       Bm  C#m  D

E|-------------10-9------------19-17-16-14----17-16--------14--|
B|--------10---------10----10--------------14-------17-14------|
G|---9-11----11---------11-------------------------------------|
D|-------------------------------------------------------------|
A|-------------------------------------------------------------|
E|-------------------------------------------------------------|

E|-------------10-9------------19-17-16-14----17-16--------14--|
B|--------10---------10----10--------------14-------17-14------|
G|---9-11----11---------11-------------------------------------|
D|-------------------------------------------------------------|
A|-------------------------------------------------------------|
E|-------------------------------------------------------------|

E|-12-9----------10-9----------19-17-16-14-----17-16--------14--|
B|------12-10---------10----10--------------14-------17-14------|
G|------------11---------11-------------------------------------|
D|--------------------------------------------------------------|
A|--------------------------------------------------------------|
E|--------------------------------------------------------------|

F#m            A                D
I could be the one to make you feel that way
Bm            C#m              D
I could be the one to set you free
F#m            A                D
I could be the one to make you feel that way
Bm            C#m              D
I could be the one to set you free

( F#m )

  F#m            A                D
When you need a way to beat the pressure down
  Bm             C#m            D
When you need to find a way to breathe
F#m            A                D
I could be the one to make you feel that way
Bm            C#m              D
I could be the one to set you free

F#m           A                D
If you never see me when the crowd is gone
Bm              C#m               D
It used to be so easy, can't you see?
F#m            A                D
I could be the one to make you feel that way
Bm            C#m              D
I could be the one to set you free

F#m            A                D
I could be the one to make you feel that way
Bm            C#m              D
I could be the one to set you free 

[Solo] F#m  A  D
       Bm  C#m  D
       F#m  A  D
       Bm  C#m  D

E|-------------10-9------------19-17-16-14----17-16--------14--|
B|--------10---------10----10--------------14-------17-14------|
G|---9-11----11---------11-------------------------------------|
D|-------------------------------------------------------------|
A|-------------------------------------------------------------|
E|-------------------------------------------------------------|

E|-------------10-9------------19-17-16-14----17-16--------14--|
B|--------10---------10----10--------------14-------17-14------|
G|---9-11----11---------11-------------------------------------|
D|-------------------------------------------------------------|
A|-------------------------------------------------------------|
E|-------------------------------------------------------------|

E|-12-9----------10-9----------19-17-16-14-----17-16--------14--|
B|------12-10---------10----10--------------14-------17-14------|
G|------------11---------11-------------------------------------|
D|--------------------------------------------------------------|
A|--------------------------------------------------------------|
E|--------------------------------------------------------------|

F#m            A                D
I could be the one to make you feel that way
Bm            C#m              D
I could be the one to set you free
F#m            A                D
I could be the one to make you feel that way
Bm            C#m              D
I could be the one to set you free

( F#m  A  D )
( Bm  C#m  D )
( F#m  A  D )
( Bm  C#m  D )
00:00 / 00:00
Otros videos de esta canción
Repetir
Otros videos de esta canción
Compositor no encontrado.
Colaboración y revisión:
  • Felipe Gabriel
  • Thiago Almeida
  • Vinícius Martins
1.724 vistas
    • ½ Tono
    • A
    • Bb
    • B
    • C
    • Db
    • D
    • Eb
    • E
    • F
    • F#
    • G
    • Ab
  • Agregar a la lista

    0 comentarios

    Ver todos los comentarios

    ¿Lograste tocar?

    6 Tocaron 0 Aún no

    ¡Graba un video tocando Avicii vs Nicky Romero - I Could Be The One y envíanoslo!

    00:00 / 00:00
    OK