Cifra Club

Levels

Avicii

Cifrado: Principal (guitarra y guitarra eléctrica)
tono: C#m
E|-9-7----------------------------|
B|-----9--------------------------|
G|-------11-9-9--9-9-9-9-8-8-9-9--|
D|--------------------------------|
A|--------------------------------|
E|--------------------------------|

E|-9-7----------------------------|
B|-----9--------------------------|
G|-------11-9-9--9-9-9-9----------|
D|----------------------11-11-9-9-|
A|--------------------------------|
E|--------------------------------|

C#m      E
Oh, sometimes
B                     A
I get a good feeling, yeah!
C#m                  E                              B
And a feeling that I never, never, never, never had before, no no
  A
I get a good feeling, yeah!

C#m      E
Oh, sometimes
B                     A
I get a good feeling, yeah!
C#m                  E                              B
And a feeling that I never, never, never, never had before, no no
  A
I get a good feeling, yeah!

E|-9-7----------------------------|
B|-----9--------------------------|
G|-------11-9-9--9-9-9-9-8-8-9-9--|
D|--------------------------------|
A|--------------------------------|
E|--------------------------------|

E|-9-7----------------------------|
B|-----9--------------------------|
G|-------11-9-9--9-9-9-9----------|
D|----------------------11-11-9-9-|
A|--------------------------------|
E|--------------------------------|

00:00 / 00:00
Otros videos de esta canción
Repetir
Otros videos de esta canción
Composición de Ash Pournouri / Etta James / Leroy Kirkland / Pearl Woods / Tim Bergling
Colaboración y revisión:
7.631 vistas
    • ½ Tono
    • Am
    • Bbm
    • Bm
    • Cm
    • C#m
    • Dm
    • Ebm
    • Em
    • Fm
    • F#m
    • Gm
    • G#m
  • Agregar a la lista

    0 comentarios

    Ver todos los comentarios

    ¿Lograste tocar?

    11 Tocaron 0 Aún no

    ¡Graba un video tocando Levels y envíanoslo!

    00:00 / 00:00
    OK