Cifra Club

Tô Limpando Você da Minha Vida

Avine Vinny

Cifrado: Principal (guitarra y guitarra eléctrica)
tono: A
Intro: Bm A


E|-------------------------------------------------------|
B|----------9--13--11--9----------------9--13--11--9-----|
G|--10--12----------------10----10--12----------------12-|
D|-------------------------------------------------------|
A|-------------------------------------------------------|
E|-------------------------------------------------------|

E|-------------------------------------------------------------------------------------------|
B|--11-11-11-11--------------------------------11-11-11-11-----------------------------------|
G|---------------12-12-12-12--------------------------------12-12-12-12---------------12-10--|
D|----------------------------13-13-13-13-10-----------------------------13-13-13-13---------|
A|-------------------------------------------------------------------------------------------|
E|-------------------------------------------------------------------------------------------|



Bm
Quem me ver dançando assim, mão pra frente gira gira
A
Eu tô limpando você da minha vida
Eu tô limpando você da minha vida
Bm
Quem me ver dançando assim, mão pra frente gira gira
A
Eu tô limpando você da minha vida
Eu tô limpando você da minha vida

Trecho: Bm A
 
Bm
Tá vendo ai, cansei de te avisar
                                           A
O mundo gira, palmas pra volta que o mundo dá
Ah palmas pra volta que o mundo da ah ah ah
Bm
Já falei pra geral que a gente terminou, nosso sentimento
                      A
Era limpo você veio e sujou uoo
Bm
Mas você ainda sobrevive em minha mente
                                          A
Por isso comprei um pano de chão e um detergente
           E5    F#          Bm
Pra dedetizar você para sempre

Bm
Quem me ver dançando assim, mão pra frente gira gira
A
Eu tô limpando você da minha vida
Eu tô limpando você da minha vida(2x)

Trecho: Fm Eb

Fm
Tá vendo ai, cansei de te avisar
                                           Eb
O mundo gira, palmas pra volta que o mundo dá
Ah palmas pra volta que o mundo dá ah ah ah
Fm
Já falei pra geral que a gente terminou, nosso sentimento
                      Eb
Era limpo você veio e sujou uoo
Fm
Mas você ainda sobrevive em minha mente
                                         Eb
Por isso comprei um pano de chão e um detergente
          Fm     Eb         Fm
Pra dedetizar você para sempre


Fm
Quem me ver dançando assim, mão pra frente gira gira
Eb
Eu tô limpando você da minha vida
Eu tô limpando você da minha vida(3x)
00:00 / 00:00
Otros videos de esta canción
Repetir
Otros videos de esta canción
Composición de Avine Vinny
Colaboración y revisión:
  • Guilherme
  • Matheus Dantas
  • Arthur Guimarães
258 vistas
  • Simplificar cifrado
    • ½ Tono
    • A
    • Bb
    • B
    • C
    • Db
    • D
    • Eb
    • E
    • F
    • F#
    • G
    • Ab
  • Agregar a la lista

    0 comentarios

    Ver todos los comentarios

    ¿Lograste tocar?

    0 Tocaron 0 Aún no

    ¡Graba un video tocando Tô Limpando Você da Minha Vida y envíanoslo!

    00:00 / 00:00
    OK