Cifra Club

Chora, Me Liga!

Aviões do Forró

Cifrado: Principal (guitarra y guitarra eléctrica)
tono: C
(intro 2x) C   G   Am   F

    C                          G
E |------------------------------|
B |-5555-------------------------|
G |------5555------------------7-|
D |-----------5555--5-7-5-7-5----|
A |------------------------------|
E |------------------------------|

              Am              F
E |-----------------------------|
B |-----------5--\5-555-5-6-5---|
G |---------------------------5-|
D |-5-77-5-7--------------------|
A |-----------------------------|
E |-----------------------------|

ou
    C                              G
E |-12-12-12--8-8-8-------------------10--------|
B |------------------8-8-8--10-10--8-8----------|
G |---------------------------------------------|
D |---------------------------------------------|
A |---------------------------------------------|
E |---------------------------------------------|

              Am                     F
E |--------------12---12-12-12-12-12-13-12-8-----|
B |-8-10-10-8-10---------------------------------|
G |----------------------------------------------|
D |----------------------------------------------|
A |----------------------------------------------|
E |----------------------------------------------|

C
Não era pra você se apaixonar
     G
Era só pra gente ficar
          Am                   F
Eu te avisei meu bem eu te avisei
C
Você sabia que eu era assim
               G
Paixão de uma noite que logo tem fim
       Am                    F
Eu te falei meu bem eu te falei

                         Dm
Não vai ser tão fácil assim
                 F
Você me ter nas mãos
                  C
Logo você que era acostumada
     G/B                Am
A brincar com outro coração

                    Dm
Não venha me perguntar
                F
Qual a melhor saída
                     Dm
Eu sofri muito por amor
          F            G
Agora eu vou curtir a vida

(refrão)
C
Chora, me liga, implora
              G
Meu beijo de novo
           Am
Me pede socorro
                      F
Quem sabe eu vou te salvar

C
Chora, me liga, implora
           G
Pelo meu amor
            Am
Pede por favor
              F              G       C
Quem sabe um dia eu volto a te procurar

(repete a música)
Compositor não encontrado.
Colaboración y revisión:
  • Anderson viana
71 vistas
    • ½ Tono
    • A
    • Bb
    • B
    • C
    • Db
    • D
    • Eb
    • E
    • F
    • F#
    • G
    • Ab
  • Agregar a la lista

    0 comentarios

    Ver todos los comentarios

    ¿Lograste tocar?

    5 Tocaron 0 Aún no

    ¡Graba un video tocando Chora, Me Liga! y envíanoslo!

    00:00 / 00:00
    Outros vídeos desta música
    Repetir Calidad Automático
    Outros vídeos desta música
    00:00 / 00:00
    Automático
    OK