Cifra Club

Cole do Meu Lado

Aviões do Forró

Cifrado: Principal (guitarra y guitarra eléctrica)
tono: C
Intro 2x:
(Solinho 1)(2x)

E|------------------------------------------------------|
B|------------------------------------------------------|
G|------------------------------------------------------|
D|----7-7--10-10--7-7--10-10----7-7--10-10--12-12--9-9--|
A|------------------------------------------------------|
E|------------------------------------------------------|


(Refrão)
Am                 F                       C
Tá liso, triste, sozinho, esquecido, abandonado
             G                   Am
Cole do meu lado, cole do meu lado
                   F                       C
Tá liso, triste, sozinho, esquecido, abandonado
             G                    ( Am F C G )
Cole do meu lado que eu tô estourado

(Solinho)

E|--------------------------------------------------------------------|
B|--------------------------------------------------------------------|
G|---------------------10-10-10-10-9------------9-7-7-9-7-------------|
D|----7-7-10-7-7-10-7-----------------10---7-10-----------10-9-7------|
A|--------------------------------------------------------------------|
E|--------------------------------------------------------------------|

E|--------------------------------------------------------------------|
B|--------------------------------------------------------------------|
G|---------------------10-10-10-10-9------------9-7-7-9-7-------------|
D|----7-7-10-7-7-10-7-----------------10---7-10------------10-9-9h10--|
A|--------------------------------------------------------------------|
E|--------------------------------------------------------------------|

(Primeira Parte)(2x)
C                 G        Am
Pra você que duvidou, olhe aí!
        F              C
Eu demorei mas estou aqui
                    G             Am
Tô na mídia, tô em cima, eu tô bacana
            F
Eu tenho a manha, eu tenho a manha


(Segunda Parte)
Dm            F                   C
   Agora todo dia uma gatinha me liga
       G                Am
Pra onde vai pra onde eu vou
              F                     C
Aquela fase ruim eu já nem sei que fim deu
   G               Dm
Ficou, passou, passou

(Pré-Refrão)
                   Am                   F
Mas deixe isso pra lá ( Deixa isso pra lá )
       G         F           C
Cole aqui que comigo é open bar
Composición de Flavinho / Leo Vieira / Segundinho
Colaboración y revisión:
  • (Bruno)
  • Valdemir Morais
6 vistas
    • ½ Tono
    • A
    • Bb
    • B
    • C
    • Db
    • D
    • Eb
    • E
    • F
    • F#
    • G
    • Ab
  • Agregar a la lista

    0 comentarios

    Ver todos los comentarios

    ¿Lograste tocar?

    1 Tocaron 0 Aún no

    ¡Graba un video tocando Cole do Meu Lado y envíanoslo!

    00:00 / 00:00
    Outros vídeos desta música
    Repetir Calidad Automático
    Outros vídeos desta música
    00:00 / 00:00
    Automático
    OK