Cifra Club

De Mãos Atadas

Aviões do Forró

Cifrado: Principal (guitarra y guitarra eléctrica)
tono: A
F#m D A E

Riff Introdução
E|--------------------------------------------------------------------|
B|-------------------------9h10p9------------9h10p9-------------------|
G|--------9-----------9-11--------11-9--------------11-9--------------|
D|-7-9/11--11p9-7-9/11-----------------12-11-------------12-11-14/9 9-|
A|--------------------------------------------------------------------|
E|--------------------------------------------------------------------| (2x)

 A
Todo mundo diz o que os olhos não vê
                                         D   D C#m Bm
Ta tranquilo, ta de boa, o coração não sente...
          A
Então me diz porque que eu tô aqui no bar
                                       
Bebendo e chorando, ciume matando, eu tô me acabando
            D    D C#m
Pesando na gente... 
 Bm
Se ainda ontem a gente fez amor
     D
Se tava tudo bem e você me deixou
    A
De pés e mãos atadas to.
             E
Porque foi embora... 

Refrão

    Bm           D          A
Me diz o que eu vou fazer agora
             F#m               D
Vou morar no bar, beber pra curar
                A
Com a dor da saudade que dá
                 E
Volta vem me cuidar
           Bm                                        D
E eu tô sofrendo, morrendo, querendo, não ta me escutando
                              A
Tô de chamando, gritando seu nome
                              E
Ainda tô aqui volta logo pra mim
            F#m               D
Vou morar no bar, beber pra curar
                A
Com a dor da saudade que dá
                 E
Volta vem me cuidar
           Bm                                        D
E eu tô sofrendo, morrendo, querendo, não ta me escutando
                              A
Tô de chamando, gritando seu nome
                              E
Ainda tô aqui volta logo pra mim
               F#m
Volta logo pra mim...

Repete Riff Introdução

E|--------------------------------------------------------------------|
B|-------------------------9h10p9------------9h10p9-------------------|
G|--------9-----------9-11--------11-9--------------11-9--------------|
D|-7-9/11--11p9-7-9/11-----------------12-11-------------12-11-14/9 9-|
A|--------------------------------------------------------------------|
E|--------------------------------------------------------------------|

Repete Riff Introdução ou use (F#m D A E)

Repete Introdução

A
Todo mundo diz o que os olhos não vê
                                         D   D C#m Bm
Ta tranquilo, ta de boa, o coração não sente...
          A
Então me diz porque que eu tô aqui no bar
                                       
Bebendo e chorando, ciume matando, eu tô me acabando
            D    D C#m
Pesando na gente...
Bm
Se ainda ontem a gente fez amor
     D
Se tava tudo bem e você me deixou
    A
De pés e mãos atadas to.
             E
Porque foi embora...
    Bm           D          A
Me diz o que eu vou fazer agora

Repete Refrão
             F#m               D
Vou morar no bar, beber pra curar
                A
Com a dor da saudade que dá
                 E
Volta vem me cuidar
           Bm                                        D
E eu tô sofrendo, morrendo, querendo, não ta me escutando
                              A
Tô de chamando, gritando seu nome
                              E
Ainda tô aqui volta logo pra mim

Repete Refrão
            F#m               D
Vou morar no bar, beber pra curar
                A
Com a dor da saudade que dá
                 E
Volta vem me cuidar
           Bm                                        D
E eu tô sofrendo, morrendo, querendo, não ta me escutando
                              A
Tô de chamando, gritando seu nome
                              E
Ainda tô aqui volta logo pra mim
               F#m
Volta logo pra mim...

Repete Riff Introdução

E|--------------------------------------------------------------------|
B|-------------------------9h10p9------------9h10p9-------------------|
G|--------9-----------9-11--------11-9--------------11-9--------------|
D|-7-9/11--11p9-7-9/11-----------------12-11-------------12-11-14/9 9-|
A|--------------------------------------------------------------------|
E|--------------------------------------------------------------------|
Compositor não encontrado.
Colaboración y revisión:
  • Fabiano Silva
66 vistas
    • ½ Tono
    • A
    • Bb
    • B
    • C
    • Db
    • D
    • Eb
    • E
    • F
    • F#
    • G
    • Ab
  • Agregar a la lista

    0 comentarios

    Ver todos los comentarios

    ¿Lograste tocar?

    0 Tocaron 0 Aún no

    ¡Graba un video tocando De Mãos Atadas y envíanoslo!

    00:00 / 00:00
    Outros vídeos desta música
    Repetir Calidad Automático
    Outros vídeos desta música
    00:00 / 00:00
    Automático
    OK