Cifra Club

Meu Novo Namorado

Aviões do Forró

Cifrado: Principal (guitarra y guitarra eléctrica)
tono: F
[Intro] A  A  A  Bb  G  F  G  A
       A  A  A  Bb  G  F  G  F
       A  A  A  Bb  G  F  G  A
       F  F  F  E  Bb  Bb  Bb  A
E|---------------------------|---------------------|----------------------|
B|---------------------------|---------------------|----------------------|
G|-0h2---2-2-2-2-3-2-0---0-2-|-2-2-2-2-3-2-0---0---|-2-2-2-2-3-2-0-----2--|
D|-----3---------------3-----|---------------3---3-|---------------3-5----|
A|---------------------------|---------------------|----------------------|
E|---------------------------|---------------------|----------------------|

E|---------------------------|
B|---------------------------|
G|------------2/3-3-3-2------|
D|-2/3-3-3-2-----------------|
A|---------------------------|
E|---------------------------|

        F                          A                 Dm        C
Não vou negar sofri demais quando você me deu o fora
        F                          A                 Dm        C
Mais o tempo passa,o mundo gira, o mundo é uma bola

            F                      C   Dm
Pintei o meu cabelo, me valorizei
                        C                   F
Entrei na academia, eu malhei, malhei
                                  C         Dm               C
Dei a volta por cima e hoje te mostrei meu novo namorado

            F         Bb         Dm
Pensou que eu ia chorar por você
               C               F
Que eu ia morrer de amor
               Bb            Dm
Que eu ia pedir pra voltar
               C        F   Bb
Ah,ah,ah,ah,ah,ah

     F         Bb          Dm
Que eu ia chorar por você
               C               F
Que eu ia morrer de amor
               Bb           Dm
Que eu ia pedir pra voltar
               C        F    Bb
Ah,ah,ah,ah,ah,ah
00:00 / 00:00
Otros videos de esta canción
Repetir
Otros videos de esta canción
Compositor no encontrado.
Colaboración y revisión:
132 vistas
    • ½ Tono
    • A
    • Bb
    • B
    • C
    • Db
    • D
    • Eb
    • E
    • F
    • F#
    • G
    • Ab
  • Agregar a la lista

    0 comentarios

    Ver todos los comentarios

    ¿Lograste tocar?

    5 Tocaron 0 Aún no

    ¡Graba un video tocando Meu Novo Namorado y envíanoslo!

    00:00 / 00:00
    OK