Cifra Club

No Toque do Celular

Aviões do Forró

Tablatura: Principal (guitarra)
Tom: D
Intro: Bm  A  Bm  A

E|14-12-14-10----------14-12-14-10----------12-10-12-9---------12-10-12-10-9---------|
B|------------12-(12)--------------10-(10)-------------10-10-----------------10-12-12|
G|-----------------------------------------------------------------------------------| x2
D|-----------------------------------------------------------------------------------|
A|-----------------------------------------------------------------------------------|
E|-----------------------------------------------------------------------------------|

Bm                     A
Esse som é envolvente vai fazer você pirar
Bm                      A
Vai tocar na sua mente no toque do celular.
D                     A
Vai tocar no paredão, te fazer enlouquecer
D                       A            F#7
E mesmo querendo ou não você vai mexer.


Bm                                       A
 Eu vou beijar sua boca, gata não se assuste
                                Bm
Vai rolar cachaça, whisky e absolut
                           A
Cerveja gelada derrama garçom
                            Bm
Liga o paredão e aumenta o som. (2x)


( Bm  A  Bm  A )

E|14-12-14-10----------14-12-14-10----------12-10-12-9---------12-10-12-10-9---------|
B|------------12-(12)--------------10-(10)-------------10-10-----------------10-12-12|
G|-----------------------------------------------------------------------------------| x2
D|-----------------------------------------------------------------------------------|
A|-----------------------------------------------------------------------------------|
E|-----------------------------------------------------------------------------------|


Bm                     A
Esse som é envolvente vai fazer você pirar
Bm                      A
Vai tocar na sua mente no toque do celular.
D                       A
Vai tocar no paredão, te fazer enlouquecer
D                       A            F#7
E mesmo querendo ou não você vai mexer.


Bm                                       A
 Eu vou beijar sua boca, gata não se assuste
                                Bm
Vai rolar cachaça, whisky e absolut
                           A
Cerveja gelada derrama garçom
                            Bm
Liga o paredão e aumenta o som. (2x)


E|14-12-14-10----------14-12-14-10----------12-10-12-9---------12-10-12-10-9---------|
B|------------12-(12)--------------10-(10)-------------10-10-----------------10-12-12|
G|-----------------------------------------------------------------------------------| x2
D|-----------------------------------------------------------------------------------|
A|-----------------------------------------------------------------------------------|
E|-----------------------------------------------------------------------------------|
reproducciones 36
Acordes para:
    Composição: Leon Lima Colaboración y revision:
    • Natan Maciel
    • PEDRO NETO
    • Ewerton

    0 comentarios

    mostrar más comentarios

    ¿Conseguiste tocar?

    6 tocaron 0 aún no

    ¡Graba un vídeo tocando No Toque do Celular y envianoslo!

    00:00 / 00:00
    outros vídeos desta música
    repetir qualidade Automático
    Outros vídeos desta música
    00:00 / 00:00
    Automático
    OK