Cifra Club

Pisadinha e a Tarraxinha

Aviões do Forró

Cifrado: Principal (guitarra y guitarra eléctrica)
tono: G
Intro: Cm  Bb  G7

Cm                                      Bb
Vou misturar a pisadinha e a tarraxinha
            G7                        Cm
Tá bombando tudo, tá cheio de gatinha...
                                       Bb
Vou misturar a pisadinha e a tarraxinha
            G7
Tá bombando tudo, tá cheio de gatinha...
Solo:
E|-----|--------------------------------------------|-----------------------------------------------|
B|-----|---17-17-17-17-13-13-13-13------------------|---15-15-15-15-12-12-12-12---------------------|
G|--14-|-14-----------------------14-14-14-14-12-12-|-12-----------------------12-12-12-12-14-14----|
D|-----|--------------------------------------------|-----------------------------------------------|
A|-----|--------------------------------------------|-----------------------------------------------|
E|-----|--------------------------------------------|-----------------------------------------------|

E|--------------------------------------------------|-----------------------------------------------|
B|---------17-17-17-17-13-13-13-13------------------|---15-15-15-15-12-12-12-12---------------------|
G|-------14-----------------------14-14-14-14-12-12-|-12-----------------------12-13-14-------------|
D|--------------------------------------------------|-----------------------------------------------|
A|--------------------------------------------------|-----------------------------------------------|
E|--------------------------------------------------|-----------------------------------------------|

Refrão:
  Cm                                      Bb
   Vou misturar a pisadinha e a tarraxinha
               G7
   Tá bombando tudo, tá cheio de gatinha...   (4x)

  Cm               Bb
   Avioãozeiro aqui Aviãozeiro lá
  Cm               Bb
   Vem com o Avião Que o bicho vai pegar

  Cm               Bb
   Avioãozeiro aqui Aviãozeiro lá
  Cm               Bb
   Vem com o Avião Que o bicho vai pegar

                                            Bb
A mulherada balançando na onda da tarraxinha
               G7                Cm
Mão na cabeça, tapinha na bundinha
                                      Bb
Arrocha, arrocha na onda da tarraxinha
               G7                Cm
Mão na cabeça, tapinha na bundinha...
                                            Bb
A mulherada balançando na onda da tarraxinha
               G7                Cm
Mão na cabeça, tapinha na bundinha
                                      Bb
Arrocha, arrocha na onda da tarraxinha
               G7                Cm
Mão na cabeça, tapinha na bundinha...
Solo:
E|-----|--------------------------------------------|-----------------------------------------------|
B|-----|---17-17-17-17-13-13-13-13------------------|---15-15-15-15-12-12-12-12---------------------|
G|--14-|-14-----------------------14-14-14-14-12-12-|-12-----------------------12-12-12-12-14-14----|
D|-----|--------------------------------------------|-----------------------------------------------|
A|-----|--------------------------------------------|-----------------------------------------------|
E|-----|--------------------------------------------|-----------------------------------------------|

E|--------------------------------------------------|-----------------------------------------------|
B|---------17-17-17-17-13-13-13-13------------------|---15-15-15-15-12-12-12-12---------------------|
G|-------14-----------------------14-14-14-14-12-12-|-12-----------------------12-13-14-------------|
D|--------------------------------------------------|-----------------------------------------------|
A|--------------------------------------------------|-----------------------------------------------|
E|--------------------------------------------------|-----------------------------------------------|
Composición de Aviões do Forró
Colaboración y revisión:
  • Felipe Raphael
21 vistas
    • ½ Tono
    • A
    • Bb
    • B
    • C
    • Db
    • D
    • Eb
    • E
    • F
    • F#
    • G
    • Ab
  • Agregar a la lista

    0 comentarios

    Ver todos los comentarios

    ¿Lograste tocar?

    1 Tocaron 0 Aún no

    ¡Graba un video tocando Pisadinha e a Tarraxinha y envíanoslo!

    00:00 / 00:00
    Outros vídeos desta música
    Repetir Calidad Automático
    Outros vídeos desta música
    00:00 / 00:00
    Automático
    OK