Cifra Club

Quem É o Gostosão Daqui?

Aviões do Forró

Cifrado: Principal (guitarra y guitarra eléctrica)
Já pensou em usar uma coleção de roupas do Cifra Club? Responda as perguntas abaixo e nos ajude nessa missão! →
tono: A
[Intro] Gm  Eb  Bb  F

[Solo]

E|------------------------------------------------------|
B|------------------------------------------------------|
G|-------------------8-7-------7-5----------------------|
D|-5-5-5-5-7-8-5----------8-----------------------------|
A|----------------6----------8--------------------------|
E|------------------------------------------------------|

E|-------------------11-10-------10-13---18-17-15-13-11-|
B|-8-8-8-8-10-11-8---------11---------------------------|
G|------------------8---------10------------------------|
D|------------------------------------------------------|
A|------------------------------------------------------|
E|------------------------------------------------------|

Cm                  Gm
   Vou te levar pra cama
Bb                     F
   Vou te deixar toda nua
Cm
   Vou te morder
             Gm
   Vou te lamber safada!!
Bb                   F
   Você vai ficar tesuda
Eb
   Vou te abraçar
             Bb
   Vou te beijar
                      F
   Vou te levar  nas nuvens
                 Gm
   É loucura de amor
Eb                Bb
   Eu sou força total
                    F
   No sexo sou campeão
                 Gm  D  C
   Vamos fazer amor

Gm               Eb
   Quem é o gostosão daqui?
       Bb                F
   Sou eu , Sou eu , Sou eu..!
Composición de Zé Luiz
Colaboración y revisión:
168 vistas
    • ½ Tono
    • A
    • Bb
    • B
    • C
    • Db
    • D
    • Eb
    • E
    • F
    • F#
    • G
    • Ab
  • Agregar a la lista

    0 comentarios

    Ver todos los comentarios

    ¿Lograste tocar?

    0 Tocaron 0 Aún no

    ¡Graba un video tocando Quem É o Gostosão Daqui? y envíanoslo!

    00:00 / 00:00
    Outros vídeos desta música
    Repetir Calidad Automático
    Outros vídeos desta música
    00:00 / 00:00
    Automático
    OK