Cifra Club

Risca Faca

Aviões do Forró

Cifrado: Principal (guitarra y guitarra eléctrica)
tono: G
[Solo]

E|---------------------------------------------|
B|---------------------------------------------|
G|--4p2-----------4---------4---------4--------|
D|------5~7-7-5-7--5---5-2-5--7--7-5-7--5------|
A|---------------------------------------------|
E|---------------------------------------------|

E|--7p5--------------7--------7-----------7----|
B|------8-10-10-8-10--8--8-5-8-10--10-8-10-8~--|
G|---------------------------------------------|
D|---------------------------------------------|
A|---------------------------------------------|
E|---------------------------------------------|

G            D
  De bar em bar
            Em
De mesa em mesa
            D           G
Bebendo cachaça,tomando cerveja
G            D
  De bar em bar
            Em
De mesa em mesa
         D              G
Bebendo cachaça,tomando cerveja

[Solo] G  D  Em  D  G  D  Em  D  C

G            D
  De bar em bar
            Em
De mesa em mesa
         D              G
Bebendo cachaça,tomando cerveja
G            D
  De bar em bar
            Em
De mesa em mesa
         D              C
Bebendo cachaça,tomando cerveja

    Em       D        C
Foi assim, que eu te conheci

G             D                   Em
 Foi no risca faca que eu te conheci
    D                 C             Em            D
Dançando, enchendo a cara, fazendo farra, to nem aí
G             D                   Em
 Foi no risca faca que eu te conheci
    D                C             Em             D
Dançando, enchendo a cara, fazendo farra, to nem aí

[Solo] G  D  Em  D  G  D  Em  D  C

G           D
 De bar em bar
            Em
De mesa em mesa
         D              G
Bebendo cachaça,tomando cerveja
G           D
 De bar em bar
            Em
De mesa em mesa
         D              G
Bebendo cachaça,tomando cerveja

    Em       D        C
Foi assim, que eu te conheci

G             D                   Em
 Foi no risca faca que eu te conheci
   D                 C             Em             D
Dançando, enchendo a cara, fazendo farra, to nem aí
G             D                   Em
 Foi no risca faca que eu te conheci
   D                 C             Em             D
Dançando, enchendo a cara, fazendo farra, to nem aí

[Solo] G  D  Em  D  G  D  Em  D  C

E|---------------------------------------------|
B|---------------------------------------------|
G|--2h4-----------4---------4---------4--------|
D|------5~7-7-5-7--5---5-2-5--7--7-5-7--5------|
A|---------------------------------------------|
E|---------------------------------------------|

E|--5h7--------------7--------7-----------7----|
B|------8-10-10-8-10--8--8-5-8-10--10-8-10-8~--|
G|---------------------------------------------|
D|---------------------------------------------|
A|---------------------------------------------|
E|---------------------------------------------|
Composición de Pepe Moreno
501 vistas
  • Simplificar cifrado
    • ½ Tono
    • A
    • Bb
    • B
    • C
    • Db
    • D
    • Eb
    • E
    • F
    • F#
    • G
    • Ab
  • Agregar a la lista

    0 comentarios

    Ver todos los comentarios

    ¿Lograste tocar?

    4 Tocaron 2 Aún no

    ¡Graba un video tocando Risca Faca y envíanoslo!

    00:00 / 00:00
    Outros vídeos desta música
    Repetir Calidad Automático
    Outros vídeos desta música
    00:00 / 00:00
    Automático
    OK