Cifra Club

Saia e Bicicletinha

Aviões do Forró

Cifrado: Principal (guitarra y guitarra eléctrica)
tono: C
(chorinho)

E|0-----0------1-----1---1--|0------0----0-----------------0------0---------|
B|----1------1-----1--------|-----1------------------3----3-----------------|
G|--2------2-----2----------|---0-----0----------------0------0-------------|

(intro) Am F C G

E|----------12-10-12----------12-10-12--------10-8-10------10-8-10-------|
B|-10-10--10---------10-10--10----------8-8--8--------8-8-8--------10----|

Am          F              C
Ela sai de saia, e bicicletinha,
                   G                         Am
Uma mão vai no guidom, a outra tapando a calcinha
            F              C
Ela sai de saia, e bicicletinha,

E|0-----0------1-----1---1--|0------0----0-----------------0------0--------|
B|----1------1-----1--------|-----1------------------3----3----------------|
G|--2------2-----2----------|---0-----0----------------0------0------------|

Am          F              C
Ela sai de saia, e bicicletinha,
                   G                         Am
Uma mão vai no guidom, a outra tapando a calcinha
            F              C
Ela sai de saia, e bicicletinha,

                   G                         Am
Uma mão vai no guidom, a outra tapando a calcinha
            F                       C
Dá uma arrepio, quando ela sai pedalando,
                     G                           Am
Mas tem uma mão na frente, que tá sempre atrapalhando.
                  F                  C
Acho que ela tem medo do piriquito voar,
          G                      Am
Por isso que ela não pára de tampar.

                F               C
Eu não aguento mais, essa situação
                G
Vamo liberar geral
                   Am    B|--4br----2-4-2---|
Vamo tirar essa Mao    G|-5---------------|

                     F
Bota a saia e vem pra rua
               C
Na sua bicicletinha,
          G                   Am
Eu quero ver a cor da sua calcinha
Compositor não encontrado.
Colaboración y revisión:
  • Ronan
  • Ricardo Lima
  • Ronnis Magalhaes
108 vistas
    • ½ Tono
    • A
    • Bb
    • B
    • C
    • Db
    • D
    • Eb
    • E
    • F
    • F#
    • G
    • Ab
  • Agregar a la lista

    0 comentarios

    Ver todos los comentarios

    ¿Lograste tocar?

    4 Tocaron 0 Aún no

    ¡Graba un video tocando Saia e Bicicletinha y envíanoslo!

    00:00 / 00:00
    Outros vídeos desta música
    Repetir Calidad Automático
    Outros vídeos desta música
    00:00 / 00:00
    Automático
    OK