Cifra Club

To Limpando Você da Minha Vida

Aviões do Forró

Cifrado: Principal (guitarra y guitarra eléctrica)
tono: Ab
E|-20p18p16-15-13----------------------------------------|
B|----------------16-13-------13-------------------------|
G|----------------------15-13----15-13-12----------------|
D|----------------------------------------15-13----------|
A|----------------------------------------------15-13----|
E|----------------------------------------------------13-|

( Fm  Eb )
   
Parte 1 de 2
E|--------8--------|--------8--------|
B|----8-9---9-8----|----8-9---11-9-8-|
G|-10-----------10-|-10--------------|
D|-----------------|-----------------|
A|-----------------|-----------------|
E|-----------------|-----------------|

Parte 2 de 2
E|-6-6-6-6---------------|-6-6-6-6-----------------|
B|----------8-8-8--------|----------8-8-8------8-6-|
G|-----------------8-8-8-|-----------------8-8-----|
D|-----------------------|-------------------------|
A|-----------------------|-------------------------|
E|-----------------------|-------------------------|

Fm
Quem me vê dançando assim, mão pra frente gira, gira
Eb
Eu tô limpando você da minha vida
Eu tô limpando você da minha vida

Fm
Quem me vê dançando assim, mão pra frente gira, gira
Eb
Eu tô limpando você da minha vida
Eu tô limpando você da minha vida

[Solo]

Parte 1 de 2
         {    7x     }
E|-------|-----------|-------|
B|-------|-9-8-------|-9-8---|
G|-10----|-----10----|-----8-|
D|----10-|--------10-|-------|
A|-------|-----------|-------|
E|-------|-----------|-------|

Parte 2 de 2
E|-6-6-6-6---------------|-6-6-6-6-----------------|
B|----------8-8-8--------|----------8-8-8------8-6-|
G|-----------------8-8-8-|-----------------8-8-----|
D|-----------------------|-------------------------|
A|-----------------------|-------------------------|
E|-----------------------|-------------------------|

Fm
Tá vendo ai, cansei de te avisar
                                             Eb
O mundo gira, palmas pra volta que o mundo dá
Ah, palmas pra volta que o mundo da, ah, ah, ah

Fm
Já falei pra geral que a gente terminou, nosso sentimento
                            Eb
Era limpo, você veio e sujou
Fm
Mas você ainda sobrevive em minha mente
                                       Eb
Por isso comprei um pano de chão e um detergente
Db         Eb               Fm
Pra dedetizar você para sempre

Fm
Quem me vê dançando assim, mão pra frente gira, gira
Eb
Eu tô limpando você da minha vida
Eu tô limpando você da minha vida

Fm
Quem me vê dançando assim, mão pra frente gira, gira
Eb
Eu tô limpando você da minha vida
Eu tô limpando você da minha vida
Compositor não encontrado.
Colaboración y revisión:
  • Paulo Oliveira
108 vistas
    • ½ Tono
    • A
    • Bb
    • B
    • C
    • Db
    • D
    • Eb
    • E
    • F
    • F#
    • G
    • Ab
  • Agregar a la lista

    0 comentarios

    Ver todos los comentarios

    ¿Lograste tocar?

    1 Tocaron 1 Aún no

    ¡Graba un video tocando To Limpando Você da Minha Vida y envíanoslo!

    00:00 / 00:00
    Outros vídeos desta música
    Repetir Calidad Automático
    Outros vídeos desta música
    00:00 / 00:00
    Automático
    OK