Notificações Amigos pendentes

      Avril Lavigne

      Complicated

      12.062 reproducciones
      Tono: F
      Intro: Dm Bb9 F C  (2x)
      
            (Dm Bb9 F C) (2x)
      E|---------------------------------------------------|
      B|----------------------------------------------6p5~-|
      G|-5/7~--232-3/5~---5-------5h7~--2-3-2--3/5~--------|
      D|-5/7~--333-----------5h7~-------3-3-3--------------|
      A|---------------------------------------------------|
      E|---------------------------------------------------|
      
      
      E|-----------------------------13p12~---------------------|
      B|-----13~------------------------------------------------|
      G|-14---------12h14----12-14~-----------------------------|
      D|-x----------------15-----------------14-/15\--14/15-14~-|
      A|-12-----------------------------------------------------|
      E|--------------------------------------------------------|
      
      
      E|---------------------------------------------------|
      B|-----13~-------------------------------------------|
      G|-14---------12h14----12-14~------------------------|
      D|-x----------------15----------14-/15\--14/15\--15~-|
      A|-12------------------------------------------------|
      E|---------------------------------------------------|
      
      
      Verso:
      F
      Chill out what you're yelling for?
      Dm
      Lay back it's all been done before
      Bb9                       C
      And if you could only let it be, you will see
      F
      I like you the way you are
      Dm
      When we're drivin' in your car
      Bb9                        C
      And you're talking to me one on one, but you become
      
      (Guitarra Pré-Refrão):
      
      G|-7-7--7-------5|
      D|-x-x--x-(x3)--5|
      A|-5-5--5-------3|
      
      
      Pré-Refrão:
      Bb9
      Somebody else, round everyone else
      Dm
      You're watching your back, like you can't relax
      Bb9
      You're tryin' to be cool, you look like a fool to
      C
      Me, tell me
      
      (Guitarra Refrão):
      
      E|-----------------------------------------------|
      B|-----------------------------------------------|
      G|-----------------------------------------------|
      D|------7----7~-----3---3------3---3----5---3-5~-|
      A|--3/5---5-----5\1---1----1/3---3----3---3------| (x2)
      
      
      E|-----3-----|
      B|----3-3-6~-|
      G|---3-------|
      D|-5---------|
      A|-5---------|
      E|-3---------|
      
      
      Refrão:
      Dm                           Bb9              F
      Why do you have to go and make things so complicated?
      C
      I see the way you're
      Dm                        Bb9                 F
      Acting like you're somebody else, gets me frustrated
      C
      A life's like this you
      Dm                   Bb9
      You fall, and you crawl, and you break
               F                             C
      And you take, what you get,and you turn it into
      Gm                                               Bb9
      Honesty, promise me I'm never gonna find you fake it
      
      No no no
      
      Verso 2:
      F
      You come over unannounced
      Dm
      Dressed up like you're somethin' else
      Bb9                               C
      Where you are ain't where it's at, you see, you're making me
      F
      Laugh out when you strike your pose
      Dm
      Take off all your preppy clothes
      Bb9                                C
      You know you're not fooling anyone, when you become
      
      Pré-Refrão:
      Bb9
      Somebody else, round everyone else
      Dm
      You're watching your back, like you can't relax
      Bb9
      You're tryin' to be cool, you look like a fool to
      C
      Me, tell me
      
      Refrão:
      Dm                           Bb9              F
      Why do you have to go and make things so complicated?
      C
      I see the way you're
      Dm                        Bb9                 F
      Acting like you're somebody else, gets me frustrated
      C
      A life's like this you
      Dm                   Bb9
      You fall, and you crawl, and you break
               F                             C
      And you take, what you get,and you turn it into
      Gm                                               Bb9
      Honesty, promise me I'm never gonna find you fake it
      
      (Guitarra Ponte):
      
      E|-----------------------------|
      B|-/11-10---/11-10-11~--10-----|
      G|-------10~~-------------10~~-|
      
      
      Ponte:
      F
      No no (no no)
      Dm
      No no (no no)
      Bb9
      No No (no no)
      C
      No...
      
      Verso 3:
      F
      Chill out what you yelling for?
      Dm
      Lay back it's all been done before
      Bb9                        C
      And if you could only let it be, you will see
      
      Pré-Refrão:
      Bb9
      Somebody else, round everyone else
      Dm
      You're watching your back, like you can't relax
      Bb9
      You're tryin' to be cool, you look like a fool to
      C
      Me, tell me
      
      Refrão:
      Dm                           Bb9              F
      Why do you have to go and make things so complicated?
      C
      I see the way you're
      Dm                        Bb9                 F
      Acting like you're somebody else, gets me frustrated
      C
      A life's like this you
      Dm                   Bb9
      You fall, and you crawl, and you break
               F                             C
      And you take, what you get,and you turn it into
      Gm                                               Bb9
      Honesty, promise me I'm never gonna find you fake it
        Composición: Avril Lavigne / Graham Edwards / Lauren Christy / Scott SpockColaboración y revision:
        • Cássia
        • Alexandre Díaz
        • ajoc
        • Matheus Atallah
        • +7

        Comentarios 25

        140 .
        • Thaís Thaís: Em 03/04/2016 18:47

          Aff, linda :´)

        • maria eduarda maria eduarda: Em 03/07/2015 20:49

          aula so preciso do solo

        • Paula Paula: Em 14/10/2014 07:48

          dificil é cantar haushus

        • mascote mascote: Em 15/01/2014 19:11

          tranquilo

        • David Rodrigues de oliveira David Rodrigues de oliveira: Em 11/06/2013 11:30

          música muito fácil

        • johnny.park.7737 johnny.park.7737: Em 13/05/2013 21:50

          Krl que v6 mais reclamam.

        • wadersonn wadersonn: Em 21/01/2013 16:41

          Muito f

        • ajoc ajoc: Em 05/10/2012 13:11

          agora sim tá corrigido!

        • doguinhaxxzz doguinhaxxzz: Em 11/09/2012 13:51

          eitah porra,eu achei nada aver com a musica, tah tudu errado,algum sabe onde taha cifra certa dessa musica.se souber reponde aii com o SITE

        • matheus.atallah matheus.atallah: Em 20/06/2012 21:24

          Corrigi, ja foi publicada a versão original.

        140 cancelar

        ¿conseguiste tocar?

        • •••
        Davi Fernandes Lopes282.237 visualizações
          ver cover de otras canciones »
          0:00 / 0:00

          Capitulos

            5 versões de contrabajo reproducciones contribuición y correción
            1 versão de batería reproducciones contribuición y correción
            1 versão de armónica reproducciones contribuición y correción
            1 versão de partiturasformatodownloadscontribuición
            play/pausefechar subir/bajar velocidad
            6ª cuerda E5ª cuerda A4ª cuerda D3ª cuerda G2ª cuerda B1ª cuerda E
              acordes
              publicidad
              cerrar
              ok