Cifra Club

Estrela Da Manhã

Ayu Brazil

Cifrado: Principal (guitarra y guitarra eléctrica)
tono: A
Intro: A  A4  A  A5(9)  A  A4  A5(9)

   A                 A7
Estrela da manhã, de onde você vem?
     A
Que estranho brilho trazes
        D
Lembras que não sou ninguém
  Dm                   A          C#m
Humilde que estás, tão límpida ao sol
     E           D           A
Brincando no teu sonho de neném

A  A4  A  A5(9) A  A4  A5(9)

    A                A7
Desculpa insensatez, Do mundo que te traz
    A
Talvez a sua luz
       D
Possa trazer de volta a paz
    Dm                    A                C#m
Tão pouco a te ensinar, e muito o que aprender
  E           D            A
Amanda com você vamos crescer!

E|-------------------------
B|---2---3---4---5---------
G|-------------------------
D|-------------------------
A|---0---0---0---0---------
E|-------------------------

A                    A7
Estrela da manhã, me empreste teu olhar
    D                           E     D   A
Pra que eu não possa ver a dor, só o amoooor!

E|-------------------------
B|---2---3---4---5---------
G|-------------------------
D|-------------------------
A|---0---0---0---0---------
E|-------------------------

A                     A7
Estrela da manhã, me empreste teu olhar
         D
Pra que eu não possa ver a dor
E     D    A
Só o amooooor!

 A  A4  A  A5(9)  A  A4  A5(9)

   A                 A7
Estrela da manhã, de onde você vem?
     A
Que estranho brilho trazes
        D
Lembras que não sou ninguém
  Dm                   A          C#m
Humilde que estás, tão límpida ao sol
     E           D           A
Brincando no teu sonho de neném

A  A4  A  A5(9) A  A4  A5(9)

    A                A7
Desculpa insensatez, Do mundo que te traz
    A
Talvez a sua luz
       D
Possa trazer de volta a paz
    Dm                    A                C#m
Tão pouco a te ensinar, e muito o que aprender
  E           D            A
Amanda com você vamos crescer!

E|-------------------------
B|---2---3---4---5---------
G|-------------------------
D|-------------------------
A|---0---0---0---0---------
E|-------------------------

A                    A7
Estrela da manhã, me empreste teu olhar
    D                           E     D   A
Pra que eu não possa ver a dor, só o amoooor!

E|-------------------------
B|---2---3---4---5---------
G|-------------------------
D|-------------------------
A|---0---0---0---0---------
E|-------------------------

A                     A7
Estrela da manhã, me empreste teu olhar
         D
Pra que eu não possa ver a dor
E     D    A
Só o amooooor!
00:00 / 00:00
Otros videos de esta canción
Repetir
Otros videos de esta canción
Composición de José Carlos Rodrigues
Colaboración y revisión:
  • Luana Ferranti
6 vistas
    • ½ Tono
    • A
    • Bb
    • B
    • C
    • Db
    • D
    • Eb
    • E
    • F
    • F#
    • G
    • Ab
  • Agregar a la lista

    0 comentarios

    Ver todos los comentarios

    ¿Lograste tocar?

    0 Tocaron 0 Aún no

    ¡Graba un video tocando Estrela Da Manhã y envíanoslo!

    00:00 / 00:00
    OK