Cifra Club

Tu Luz

Azul Violeta

Cifrado: Principal (guitarra y guitarra eléctrica)
tono: Em
Figura 1
E|---------------------------------------------------|
B|---0----0------0---0-------0----0-----0-----0------|
G|--0-0--0-0----0-0-0-0-----0-0--0-0---0-0---0-0-----|
D|---------------------------------------------------|
A|-5----5---5--4---4----4--3----3---3--5----5-----5--|
E|---------------------------------------------------|

Riff 1
E|-------109-98-8| --|
B|--7/8br--------------|
G|---------------------|
D|---------------------|
A|---------------------|
E|---------------------|

Riff 2
E|-------109------------12b-12| -10-7-5/7-7--|
B|-7/8br-------8/10| 108---------------------------|
G|-------------------------------------------------|
D|-------------------------------------------------|
A|-------------------------------------------------|
E|-------------------------------------------------|

Riff 3
E|-7---5xx--3-------15b17r15b17r15b17r15b17r15-----|
B|-8---5xx--3--------------------------------------|
G|-9-----------------------------------------------|
D|-------------------------------------------------|
A|-------------------------------------------------|
E|-------------------------------------------------|

Riff 4
E|-12| --12--12--10/12--|
B|-----------------------------|
G|-----------------------------|
D|-----------------------------|
A|-----------------------------|
E|-----------------------------|

Riff 5
E|-----3| ---------------------|-----3---------------------|
B|-3/5------3/5--3-------------|-3/5------3/5--5/8-----------|
G|-----------------------------|-----------------------------|
D|-----------------------------|-----------------------------|
A|-----------------------------|-----------------------------|
E|-----------------------------|-----------------------------|

E|-----3| ---------------------|-----3---------------------|
B|-3/5------5| --3/5--5--5---|-3/5----------3/5-----5/8----|
G|-----------------------------|-----------------------------|
D|-----------------------------|-----------------------------|
A|-----------------------------|-----------------------------|
E|-----------------------------|-----------------------------|

E|-----3| ---5--5------------|
B|-3/5-------------------------|
G|-----------------------------|
D|-----------------------------|
A|-----------------------------|
E|-----------------------------|

Riff 6
E|-17-17--15-|
B|-12/15-12-12| -10/12---|
B|--------------------------------------------|
G|--------------------------------------------|
D|--------------------------------------------|
A|--------------------------------------------|
E|--------------------------------------------|


[Fig 1.]
Tres más y once meses pa' llegar
hasta el final de un milenio más
de cohabitar el mundo
Todo paso fugaz frente de mi un siglo atrás
vivian a otro ritmo, vivian a otro ritmo yeah

(Riff 1)


[Fig 1.]
Hoy busco la raíz para amarrar mis sueños a un nuevo Dios
que me permita ser felíz
Porque para seguir viviendo aqui se necesitan horizontes
amplios para encontrar la puerta


A                      C
Para corregir la ruta no queremos otra guerra
B            Em
queremos tu luz  (Riff 3)
A                      C
Para disfrutar la vida no queremos más dinero
B         Em
queremos amor   (Riff 3)


[Fig 1.]
Dormí lo suficiente es hora ya de despertar para
iniciar la búsqueda
de una razón para vivir   (Riff 4)
Contemplo la caida que al final me llevara a renacer
con sangre nueva


A                      C
Para corregir la ruta no queremos otra guerra
B            Em
queremos tu luz
A                      C
Para disfrutar la vida no queremos más dinero
B         Em
queremos amor


(Riff 5)
C      B             Em
La conciencia no me basta no, no me basta
C      B             Em
La inocencia me confunde, me confunde
       B             Em
La conciencia no me basta no, no me basta no
C      B             Em
La paciencia se me acaba, se me acaba
Composición de Hugo Rodríguez
7 vistas
    • ½ Tono
    • Am
    • Bbm
    • Bm
    • Cm
    • C#m
    • Dm
    • Ebm
    • Em
    • Fm
    • F#m
    • Gm
    • G#m
  • Agregar a la lista

    0 comentarios

    Ver todos los comentarios

    ¿Lograste tocar?

    0 Tocaron 0 Aún no

    ¡Graba un video tocando Tu Luz y envíanoslo!

    00:00 / 00:00
    Otros videos de esta canción
    Repetir Calidad Automático
    Otros videos de esta canción
    00:00 / 00:00
    Automático
    OK