Cifra Club

Irresponsables

Babasónicos

Cifrado: Principal (guitarra y guitarra eléctrica)
tono: Em
[Intro] Em

Parte 1 de 2

   Em
E|------------------------------------------|
B|------------------------------------------|
G|------------------------------------------|
D|------------------------------------------|
A|-----------------------2-5/7-7-7~---------|
E|-12\--0------0-3-0-3-5--------------------|

Parte 2 de 2

E|---------------0-0------0------0----------|
B|---------------0-0------------------------|
G|-----2-2---2b4------2b4----2b4----2b4-b4--|
D|-2-5-----5--------------------------------|
A|------------------------------------------|
E|------------------------------------------|

E|------------------------------------------|
B|------------------------------------------|
G|-b4r2p0-----------------------------------|
D|--------0-2~------------------------------|
A|------------------------------------------|
E|------------------------------------------|

[Primeira Parte] 


Somos culpables de este amor escandaloso
              Am
Que el fuego mismo de pasion alimento
             D                         C
Que en el remanso de la noche impostergable
          Am                    B
Nos averguenza seguir sintiendolo

[Refrão] 

        Em  C
Poco a poco
            D        Em
Fuimos volviendonos locos
D                            G
  Y es el vapor de nuestro amor
                       Am
Nos embriago con su licor
   B                        C
Y culpa al carnaval interminable
     Am                     B
Nos hizo confundir irresponsables

[Segunda Parte] 

           Em
Si fuimos carne de la intriga casquivana
             Am
Que la imprudencia del rumor hoy desato
           D                         C
Que descubiertos por la luz de la mañana
          Am                      B
Nos castigaron la desidia y el dolor

[Refrão] 

        Em  C
Poco a poco
            D        Em
Fuimos volviendonos locos
D                            G
  Y es el vapor de nuestro amor
                       Am
Nos embriago con su licor
   B                        C
Y culpa al carnaval interminable
     Am                     B
Nos hizo confundir irresponsables

[Solo] Em  Am  D  C  Am  B

Parte 1 de 4

   Em
E|-------10------------------10-------------|
B|-10b12----b12--------10b12----12r10-------|
G|------------------------------------------|
D|------------------------------------------|
A|------------------------------------------|
E|------------------------------------------|

E|----------10------------------------------|
B|-10-10b12----12r10-8--------------8-------|
G|---------------------9--9------9----------|
D|------------------------------------------|
A|------------------------------------------|
E|------------------------------------------|

Parte 2 de 4

   Am
E|-------12---------------12-------12-------|
B|-10b12----b12-----10b12----10b12----12r10-|
G|------------------------------------------|
D|------------------------------------------|
A|------------------------------------------|
E|------------------------------------------|

E|-------12-----------------12--------------|
B|-10b12----12r10-----10b12----10-----------|
G|------------------------------------------|
D|------------------------------------------|
A|------------------------------------------|
E|------------------------------------------|

Parte 3 de 4

   D
E|--------------10-------10-----------------|
B|-10b12--10b12----12r10----12r10---8----8--|
G|--------------------------------9---9-----|
D|------------------------------------------|
A|------------------------------------------|
E|------------------------------------------|
          C
E|------------------------------------------|
B|-10--10b11-b11-b11-b11r10-----------------|
G|--------------------------9--9~-----------|
D|------------------------------------------|
A|------------------------------------------|
E|------------------------------------------|

Parte 4 de 4
    
   Am
E|-------10-----------------------10--------|
B|-10b12----12r10-----10b12-10b12----12r10--|
G|------------------------------------------|
D|------------------------------------------|
A|------------------------------------------|
E|------------------------------------------|
 
   B
E|------------------------------------------|
B|-10b12---10b12---10b12---10b12---10b12----|
G|------------------------------------------|
D|------------------------------------------|
A|------------------------------------------|
E|------------------------------------------|

[Refrão] 

        Em  C
Poco a poco
            D        Em
Fuimos volviendonos locos
D                          G
Y es el vapor de nuestro amor
                       Am
Nos embriago con su licor
   B                        C
Y culpa al carnaval interminable
     Am                     B
Nos hizo confundir irresponsables
00:00 / 00:00
Otros videos de esta canción
Repetir
Otros videos de esta canción
Composición de Adrian Dargelos
Colaboración y revisión:
7.430 vistas
    • ½ Tono
    • Am
    • Bbm
    • Bm
    • Cm
    • C#m
    • Dm
    • Ebm
    • Em
    • Fm
    • F#m
    • Gm
    • G#m
  • Agregar a la lista

    0 comentarios

    Ver todos los comentarios

    ¿Lograste tocar?

    10 Tocaron 0 Aún no

    ¡Graba un video tocando Irresponsables y envíanoslo!

    00:00 / 00:00
    OK