Cifra Club

When Can I See You Again?

Babyface

Cifrado: Principal (guitarra y guitarra eléctrica)
Selo Cifra Club: esta cifra foi revisada para atender aos critérios oficiais da nossa Equipe de Qualidade.
tono: G
(From the 1993 Album FOR THE COOL IN YOU)
Transcribed by Soch H.


  Gtr I
Intro:
|---------|---------|-----------------|---------0------------|
|---------|---------|-0-------------3-|-(3)-------3----------|
|---------|---------|---2-------0-----|-------2-------2-(2)--|
|---------|---------|-----0-------2---|-----4-------4--------|
|---------|---------|---------------2-|-(2)------------------|
|---------|---------|-3-----3-0-------|----------------------|

|---------------!2-(2)-|-(2)------|-----------------|---------0------------|
|-0-------------!3-(3)-|-(3)------|-0-------------3-|-(3)-------3----------|
|---2-------0---!2-(2)-|-(2)------|---2-------0-----|-------2-------2-(2)--|
|-----0-------2-!4-(4)-|-(4)------|-----0-------2---|-----4-------4--------|
|---------------!2-(2)-|-(2)------|---------------2-|-(2)------------------|
|-3-----3-0------------|----------|-3-----3-0-------|----------------------|

|-----------------|---------0-----------|
|-0-------------3-|-(3)-------3---------|
|---2-------0-----|-------2-------2-(2)-|
|-----0-------2---|-----4-------4-------|
|---------------2-|-(2)-----------------|
|-3-----3-0-------|---------------------|

|-----------------|---------0-----------|
|-0-------------3-|-(3)-------3---------|
|---2-------0-----|-------2-------2-(2)-|
|-----0-------2---|-----4-------4-------|
|---------------2-|-(2)-----------------|
|-3-----3-0-------|---------------------|

|-----------------|--------0-------|-----------------|---------------------|
|-0-------------3-|(3)-------3-----|-8-------7-----8-|-(8)-----8-(8)-------|
|---2-------0-----|------2-------2-|---9-------8-----|-----9---------9-----|
|-----0-------2---|----4-------4---|-----9-------9---|-------9---------9---|
|---------------2-|(2)-------------|-7-----7-6-----7-|-(7)-----------------|
|-3-----3-0-------|----------------|-----------------|---------9-(9)-----5-|

|------------------------|----------------|---------|-------------------|
|-------------5-5--------|-5-(5)-(5)------|---------|-5---5---3---0--1--|
|-5-----------5-5--------|-5-(5)-(5)------|---------|-----5-----0-------|
|---7---------7-7--------|-5-(5)-(5)------|---------|---5-5-------------|
|-----5h7-(7)-7-7--0-(0)-|-3-(3)-(3)------|---------|-3---3-3-2------0--|
|------------------------|----------------|---------|-------------------|

|---------0-------------|----------------------|---------0-----------------|
|-(1)-------------------|-5---5----3---0-(0)-1-|-(1)-----------------------|
|-------2----------0----|-----5------0---------|-------2----------0--------|
|-----2-----2--0h2------|---5-5----------------|-----2-----2--0h2----------|
|-(0)----------------0--|-3---3-3--2---------0-|-(0)----------------0-(0)--|
|-----------------------|----------------------|---------------------------|

|-------------------------|---------0-------------|-0----------------------|
|-5---5-------3---0-(0)-1-|-(1)-------------------|-0---------!4-(4)-(4)---|
|-----5---------0---------|-------2----------0----|-----4-(4)-!4-(4)-(4)---|
|---5-5-------------------|-----2-----2--0h2------|---4-------!4-(4)-(4)---|
|-3---3-3-(3)-2---------0-|-(0)----------------0--|-----------!2-(2)-(2)---|
|-------------------------|-----------------------|-2----------------------|

|--------------------0-(0)-|-(0)---------|---------------------|
|--------------------------|-------------|--------!5-(5)-(5)---|
|---0h4---0h4---0-4--------|-------------|-----2--!5-(5)-(5)---|
|-2-----0------------------|-------------|---2----!4-(4)-(4)---|
|-------------4------------|-------------|-0------!5-(5)-(5)---|
|--------------------------|-------------|---------------------|

|---------|-----------------|---------0-----------|-----------------|
|---------|-0-------------3-|-(3)-------3---------|-0-------------3-|
|---------|---2-------0-----|-------2-------2-(2)-|---2-------0-----|
|---------|-----0-------2---|-----4-------4-------|-----0-------2---|
|---------|---------------2-|-(2)-----------------|---------------2-|
|---------|-3-----3-0-------|---------------------|-3-----3-0-------|

|---------0-----------|-----------------|
|-(3)-------3---------|-0-------------3-|
|-------2-------2-(2)-|---2-------0-----|
|-----4-------4-------|-----0-------2---|
|-(2)-----------------|---------------2-|
|---------------------|-3-----3-0-------|

|---------0-----------|-----------------|
|-(3)-------3---------|-0-------------3-|
|-------2-------2-(2)-|---2-------0-----|
|-----4-------4-------|-----0-------2---|
|-(2)-----------------|---------------2-|
|---------------------|-3-----3-0-------|

|---------0--------|-----------------|
|-(3)-------3------|-8-------7-----8-|
|-------2-------2--|---9-------8-----|
|-----4-------4----|-----9-------9---|
|-(2)--------------|-7-----7-6-----7-|
|------------------|-----------------|

|----------------------|-------------------------|
|-(8)-----8-(8)--------|-------------5-5---------|
|-----9---------9------|-5-----------5-5---------|
|-------9---------9----|---7---------7-7---------|
|-(7)------------------|-----5h7-(7)-7-7--0-(0)--|
|---------9-(9)------5-|-------------------------|

|------------------------------|-----------|------------------------|
|-!5--(5)-(5)-(5)-(5)-(5)-(5)--|---------5-|---5-------3----0-(0)-1-|
|-!5--(5)-(5)-(5)-(5)-(5)-(5)--|-----------|---5----------0---------|
|-!5--(5)-(5)-(5)-(5)-(5)-(5)--|-----------|-5-5--------------------|
|-!3--(3)-(3)-(3)-(3)-(3)-(3)--|---------3-|---3-3-(3)-2----------0-|
|------------------------------|-----------|------------------------|

|--------0------------|-------------------------|---------0----------------|
|(1)------------------|-5---5-------3---0-(0)-1-|-(1)----------------------|
|------2-------0------|-----5---------0---------|-------2----------0-------|
|----2-----0h2--------|---5-5-------------------|-----2-----2--0h2---------|
|(0)-------------0-(0)|-3---3-3-(3)-2---------0-|-(0)----------------0-(0)-|
|---------------------|-------------------------|--------------------------|

|-------------------------|---------0-------------|-0----------------------|
|-5---5-------3---0-(0)-1-|-(1)-------------------|-0----------!4-(4)-(4)--|
|-----5---------0---------|-------2----------0----|-----4-(4)--!4-(4)-(4)--|
|---5-5-------------------|-----2-----2--0h2------|---4--------!4-(4)-(4)--|
|-3---3-3-(3)-2---------0-|-(0)----------------0--|------------!2-(2)-(2)--|
|-------------------------|-----------------------|-2----------------------|

|------------------------0-(0)-|-(0)---------|-------------------------|
|------------------------------|-------------|--------!5-(5)-(5)-(5)---|
|---0-(0)---0-(0)---0-4--------|-------------|-----2--!5-(5)-(5)-(5)---|
|-2-------0--------------------|-------------|---2----!4-(4)-(4)-(4)---|
|-----------------4------------|-------------|-0------!5-(5)-(5)-(5)---|
|------------------------------|-------------|-------------------------|

|---------|-----------------|---------0-----------|-----------------|
|---------|-0-------------3-|-(3)-------3---------|-0-------------3-|
|---------|---2-------0-----|-------2-------2-(2)-|---2-------0-----|
|---------|-----0-------2---|-----4-------4-------|-----0-------2---|
|---------|---------------2-|-(2)-----------------|---------------2-|
|---------|-3-----3-0-------|---------------------|-3-----3-0-------|

|---------0--------|-----------------|
|-(3)-------3------|-8-------7-----8-|
|-------2-------2--|---9-------8-----|
|-----4-------4----|-----9-------9---|
|-(2)--------------|-7-----7-6-----7-|
|------------------|-----------------|

|----------------------|--------------------|
|-(8)-----8-(8)--------|-------------5-5----|
|-----9---------9------|-5-----------5-5----|
|-------9---------9----|---7---------7-7----|
|-(7)------------------|-----5h7-(7)-7-7--0-|
|---------9-(9)------5-|--------------------|

|-------------------------|------------------------|---------0-------------|
|-----!5-(5)-(5)-(5)----5-|---5-------3----0-(0)-1-|-(1)-------------------|
|-----!5-(5)-(5)-(5)------|---5----------0---------|-------2----------0----|
|-----!5-(5)-(5)-(5)------|-5-5--------------------|-----2-----2--0h2------|
|-(0)-!3-(3)-(3)-(3)----3-|---3-3-(3)-2----------0-|-(0)----------------0--|
|-------------------------|------------------------|-----------------------|

|----------------------|---------0-------------|----------------------|
|-5---5-------3---0--1-|-(1)-------------------|-5---5-------3---0--1-|
|-----5---------0------|-------2----------0----|-----5---------0------|
|---5-5----------------|-----2-----2--0h2------|---5-5----------------|
|-3---3-3-(3)-2------0-|-(0)----------------0--|-3---3-3-(3)-2------0-|
|----------------------|-----------------------|----------------------|

|---------0-------------|-0----------------------|
|-(1)-------------------|-0---------!4-(4)-(4)---|
|-------2----------0----|-----4-(4)-!4-(4)-(4)---|
|-----2-----2--0h2------|---4-------!4-(4)-(4)---|
|-(0)----------------0--|-----------!2-(2)-(2)---|
|-----------------------|-2----------------------|

|------------------------0-(0)-(0)-|
|----------------------------------|
|---0-(0)---0-(0)---0-4------------|
|-2-------0------------------------|
|-----------------4----------------|
|----------------------------------|

|----------|-------------------------|---------|------------------|
|----------|--------!5-(5)-(5)-(5)---|---------|-0-------------3--|
|----------|-5------!5-(5)-(5)-(5)---|---------|---2-------0------|
|----------|---7----!7-(7)-(7)-(7)---|---------|-----0-------2----|
|----------|-----7--!7-(7)-(7)-(7)---|---------|---------------2--|
|----------|--------!5-(5)-(5)-(5)---|---------|-3-----3-0--------|

|---------0-----------|-----------------|
|-(3)-------3---------|-0-------------3-|
|-------2-------2-(2)-|---2-------0-----|
|-----4-------4-------|-----0-------2---|
|-(2)-----------------|---------------2-|
|---------------------|-3-----3-0-------|

|---------0-----------|-----------------|
|-(3)-------3---------|-0-------------3-|
|-------2-------2-(2)-|---2-------0-----|
|-----4-------4-------|-----0-------2---|
|-(2)-----------------|---------------2-|
|---------------------|-3-----3-0-------|

|---------0---------|-----------2--(2)-|---(2)-----(2)--*|
|-(3)-------3-------|---------0--------|----------------*|
|-------2-------2---|-------2----------|----------------*|
|-----4-------4-----|-----0------------|----------------*|
|-(2)---------------|---2--------------|----------------*|
|-------------------|-3----------------|----------------*|
Otros videos de esta canción
    995 exhibiciones
      • ½ Tono
      • A
      • Bb
      • B
      • C
      • Db
      • D
      • Eb
      • E
      • F
      • F#
      • G
      • Ab
    • Agregar a la lista

    Afinación de cifrado

    Afinador online

      OK