Cifra Club

Down,Down

Bachman-Turner Overdrive

Cifrado: Principal (guitarra y guitarra eléctrica)
tono: D
Introdução:

E|-------------------------0-----------------------------------------------------------------------------------0---------------------------------
B|-----------------3----------------3---------------------------------------------------------------8---------------------8--------------------
G|--------2----------------------------------2--------------------------------------------7----------------------------------------7-----------
D|--0---------------------------------------------------------------------------0----------------------------------------------------------------

E|------------------------------------0-------------------------------------------------------------------3---------------------------------------
B|---------------------------6-----------------6--------------------------------------------------0------------0---------------------------------
G|--------------5---------------------------------------5------------------------------------5-----------------------3----------------------------
D|------0-------------------------------------------------------------------------------0----------------------------------------------------------

E|-------------------------------------------------3-----------------------------------------------------------------------------------------------
B|-------------------------3----------------------3-----------------------------------------------------------------------------------------------
G|-----------------4------------------------------4-----------------------------------------------------------------------------------------------
D|-------------------------------------------------------------------------------------------------------------------------------------------------
A|------0-----------------------------------------------------------------------------------------------------------------------------------------

Verso:
E|-----2---------------------7------------------5----------------3------------------3--------------------2-----------------------------------
B|-----3---------------------8------------------6----------------5------------------3--------------------3-----------------------------------
G|-----2---------------------7------------------5----------------5------------------4--------------------2-----------------------------------
D|-----0---------------------0------------------0----------------0------------------5--------------------0----------------------------------
A|------------------------------------------------------------------------------------0---------------------------------------------------------

Riff:
E|------------------------------------------------------------------------------------------------------------------3-------------
B|------------------------------------------------------------------------------------------------------------------3-------------
G|--------2------2---------------------------2------2--------------------------2------2-------------------------4-------------
D|--------0------0--------3------5--------0-------0---------3------5--------0------0-------3-----5----------0-------------
A|-------------------------3------5----------------------------3------5------------------------3-----5-------------------------

Refrão:
F   G  D  +  Riff
00:00 / 00:00
Otros videos de esta canción
Repetir
Otros videos de esta canción
Composición de Márcio & Lais
Colaboración y revisión:
  • marcio galvao
27 vistas
    • ½ Tono
    • A
    • Bb
    • B
    • C
    • Db
    • D
    • Eb
    • E
    • F
    • F#
    • G
    • Ab
  • Agregar a la lista

    0 comentarios

    Ver todos los comentarios

    ¿Lograste tocar?

    1 Tocaron 1 Aún no

    ¡Graba un video tocando Down,Down y envíanoslo!

    00:00 / 00:00
    OK