Cifra Club

Don´T Want You Back

Backstreet Boys

Cifrado: Principal (guitarra y guitarra eléctrica)
tono: Bb
   E-----1------------------------------------------
   B-3-4---1---1-3-4-------1-3-4-3-1----------------
   G-----------------3---3--------------------------
   D------------------------------------------------
   A------------------------------------------------
   E------------------------------------------------

   E-----1------------------------------------------
   B-3-4---1---1-3-4-------1-3-4-3-1----------------
   G-----------------3---3--------------------------
   D------------------------------------------------
   A------------------------------------------------
   E------------------------------------------------

You hit me faster than a shark attack
You saw my picture
On the Backstreet's Back, alright
And you were more than just a pretty face
But how you fooled me, I'm still amazed baby
But I should have known that I would be
Another victim of your sexuality
But now we're done and over with
I don't want you back

CHORUS
Don't want you back
'Cause you're no good for me
I know
That's all I can say
Don't want you back
Forgive my honesty but you gotta go
I don't want you back

You started going out with so-called friends
But I was blind and so I lost all common sense
But there were things that made me realize
Like all the hundred no, thousand lies

CHORUS - repeat

Baby, don't bother telling me your reasons why

Just let us sing this story 'bout you and I
Don't want you back
That's all I know
Don't want you back
All I can say
Don't want you back
You know you gotta go

CHORUS - repeat
Composición de Max Martin
Colaboración y revisión:
  • roberto braick
127 vistas
    • ½ Tono
    • A
    • Bb
    • B
    • C
    • Db
    • D
    • Eb
    • E
    • F
    • F#
    • G
    • Ab
  • Agregar a la lista

    0 comentarios

    Ver todos los comentarios

    ¿Lograste tocar?

    0 Tocaron 0 Aún no

    ¡Graba un video tocando Don´T Want You Back y envíanoslo!

    00:00 / 00:00
    Outros vídeos desta música
    Repetir Calidad Automático
    Outros vídeos desta música
    00:00 / 00:00
    Automático
    OK