Cifra Club

I Want It That Way

Backstreet Boys

Chords: Principal (acoustic and electric guitars)
tone: A (chord shape for key of G) Capo on fret 2
[Intro] Em  C  G
        Em  C  G

[Dedilhado - Intro]

   Em              C     G
E|------------------------------------------|
B|-----0-----1p0-------1-------3------------|
G|-------0-------0-----------0---0----------| (2x)
D|---2-----2---------2-----0----------------|
A|-----------------3------------------------|
E|-0---------------------3------------------|

[Primeira Parte] 

[Dedilhado - Primeira Parte]

Parte 1 de 2 - 3x
   Em              C     G
E|------------------------------------------|
B|-----0-----1p0-------1-------3------------|
G|-------0-------0-----------0---0----------|
D|---2-----2---------2-----0----------------|
A|-----------------3------------------------|
E|-0---------------------3------------------|

Parte 2 De 2
   Em              D  G   
E|-----------------2--3---------------------|
B|-----0-----1p0---3--3---------------------|
G|-------0-------0-2--0---------------------|
D|---2-----2-------0--0---------------------|
A|--------------------2---------------------|
E|-0------------------3---------------------|

    Em       C G
You are, my fire
    Em      C G
The one, desire
    Em        C  G
Believe, when I say
Em          D   G
I want it that way

     Em       C  G
But we, are two worlds
  Em           C    G
Apart, can't reach to
       Em         C   G
Your heart, when you say
     Em          D   G
That I want it that way

[Refrão] 

          C 
Tell me why
                      D  Em
Ain't nothin' but a heartache
          C
Tell me why
                     D  Em
Ain't nothin' but a mistake
          C
Tell me why
                D       G
I never wanna hear you say
Em          D   G
I want it that way

[Segundo Parte] 

   Em      C G
Am I your fire?
     Em     C G
Your one desire?
         Em        C   G
Yes, I know, it's too late
     Em          D   G
But, I want it that way

[Refrão] 

          C 
Tell me why
                      D  Em
Ain't nothin' but a heartache
          C
Tell me why
                     D  Em
Ain't nothin' but a mistake
          C
Tell me why
                D       G
I never wanna hear you say
Em          B4  B
I want it that way

[Ponte] 

 Em           
Now, I can see 
            G
That we've fallen apart
          C               
From the way that it used 
    Am   D
To be, yeah
    Em                 
No matter the distance
   G
I want you to know
       C                  D4  D
That deep down inside of me

[Refrão Final] 

    C       D G
You are my fire
    C      D G
The one desire
    C            
You are, you are
    D        G   Em  D
You are, you are
                       D
(Don't wanna hear you say, yeah)

                      E  F#m
Ain't nothin' but a heartache
D                    E  F#m
Ain't nothin' but a mistake
D               E       A
I never wanna hear you say
F#m             E   A
    I want it that way

          D 
Tell me why
                      E  F#m
Ain't nothin' but a heartache
          D 
Tell me why
                     E  F#m
Ain't nothin' but a mistake
          D  
Tell me why
                E       A
I never wanna hear you say
F#m         E   A
I want it that way

          D 
Tell me why
                      E  F#m
Ain't nothin' but a heartache
D                      E  F#m
  Ain't nothin' but a mistake
          D 
Tell me why
                E       A
I never wanna hear you say
F#m         E   A
I want it that way
       F#m         E   A
‘Cause I want it that way
00:00 / 00:00
Other videos of this song
Repeat
Other videos of this song
Composed by Andreas Carlsson / Max Martin
22.300 views
    • ½ Tone
    • A
    • Bb
    • B
    • C
    • Db
    • D
    • Eb
    • E
    • F
    • F#
    • G
    • Ab
  • Add to list
    00:00 / 00:00
    OK