Cifra Club

21st century digital boy

Bad Religion

Cifrado: Principal (guitarra y guitarra eléctrica)
tono: D
(Abaixe a afinação em meio tom)



E|-------------------------------------------------------------
B|-13b15-13b15-13b15---------------10------------------------
G|---------------------12b14r12-----12b14-12b14r12p10----10-
D|-------------------------------10---------------------12----
A|------------------------------------------------------------
E|------------------------------------------------------------

E|--------13h15-15b17-15b17r15p13----13---------------------
B|-13h15---------------------------15----13------------------
G|----------------------------------------12b14-12b14r12p10-
D|------------------------------------------------------------
A|------------------------------------------------------------
E|------------------------------------------------------------

E|-----------------
B|-----------------
G|----10-----------     Agora improvise numa escale de D(Ré)
D|-12----12p10-12-
A|-----------------
E|-----------------

D
            D        F  G  A# A
  I can't believe it,
      D       F        G      A#
  the way you look sometimes,
  A      D        F         C    G
  like a trampled flag on a city street,
     D    F  A
  oh yeah

              D       F  G  A# A
  and I don't want it,
      D             F        G  A# A
  the things you're offering me,
  D          F         C       G
  symbolized bar code, quick i.d.,
     D    F  A  
  oh yeah

        D    A#      F       C
  I'm a 21st century digital boy,
    D                 A#             F            C  
  I don't know how to live, but I've got a lot of toys,
     D          A#          F          G
  my daddy is a lazy middle class intellectual,
     D          A#            F      G     A
  my mommy's on valium, she's so ineffectual,

  ain't life a mystery?

D  F  G  A# A  D  F  A

  I can't explain it,
  the things they're saying to me,
  it's going yayayayayayaya,
  oh yeah,

  I'm a 21st century digital boy,
  I don't know how to read, but I've got a lot of toys,
  my daddy is a lazy middle class intellectual,
  my mommy's on valium, she's so ineffectual,
  ain't life a mystery?

C
  I tried to tell you about no control,
G
  but now I really don't know,
A#                         F
  and then you told me how bad you had to suffer,
A
  is that really all you have to offer?


(Solo)
Composición de Brett Gurewitz
469 vistas
    • ½ Tono
    • A
    • Bb
    • B
    • C
    • Db
    • D
    • Eb
    • E
    • F
    • F#
    • G
    • Ab
  • Agregar a la lista

    0 comentarios

    Ver todos los comentarios

    ¿Lograste tocar?

    3 Tocaron 0 Aún no

    ¡Graba un video tocando 21st century digital boy y envíanoslo!

    00:00 / 00:00
    Outros vídeos desta música
    Repetir Calidad Automático
    Outros vídeos desta música
    00:00 / 00:00
    Automático
    OK