Cifra Club

Broken

Bad Religion

Cifrado: Principal (guitarra y guitarra eléctrica)
tono: A
Versão 1
-======-

Afinação : E

---------------------------------------------------------------------------------

Intro

E---------------------------
B-----(várias vezes)--------
G-------7---77--------------
D-------6---66--------------
A-6/7-7-7-7-----------------
E---------------------------

Refrão

E----------------------------------------
B(-----3xs------)-(ouça p/ pegar o tempo)
G-------------7-------77----77-----------
D-7---5---3---7-----6-66--6-66-----------
A-7---5---3---5---777777777777-----------
E-5---3---1------------------------------

Verso 

Acústico

Am G Am E Am G F D

Guitarra
  (0:24)e(0:32*)
E---------------------------
B(---2xs----)---------------
G-----7---------------------
D-3---7---------------------
A-3---5---3~~~-----2-0------
E-1-------------------1-0---
*só o segundo acorde nessa parte

Refrão

Verso

Refrão

Ponte
guitarra1
E------------------
B------------------
G-----7------------
D-3---7---3---2----
A-3---5---3---2----
E-1-------1---0----
guitarra2 (embolado d+, não dá pra ouvir direito)
E-0-------------
B--1------------
G---2-----------
D---------------
A---------------
E---------------

Solo (a base do solo é o refrão)
  
E(---------2xs-------)----------------------------
B--------8-8b10-----------------------------------
G-9-7-9---------9--------7-9--------7-9----ha-----
D----------------------------9-9b10-----9-9b10----
A-------------------------------------------------
E----------------------------------------------7--

Verso

Acústico (só violão 3xs)

Guitarra 

E-------------------------
B-------------------------
G---------10---7---5---2--
D-7---5---10---7---5---2--
A-7---5---8----5---3---0--
E-5---3-------------------

Refrão Final e termina com

E----
B----
G----
D-7--
A-7--
E-5--


Ouça pra pegar a batida tanto da guitarra quanto a do violão.

Gabriel




_______________________________________________________




Versão 2
-======-

Intro:
Light distorsion
------------------------------------------------------------
---------------------------------9-9-9-9-9-9-9-9------------
-----------------7-7-7-7-7-7-7-7-7-7-7-7-7-7-7-7------------
-9-9-9-9-9-9-9-9-9-9-9-9-9-9-9-9-9-9-9-9-9-9-9-9------------
-7-7-7-7-7-7-7-7-7-7-7-7-7-7-7-7-7-7-7-7-7-7-7-7------------
-0-0-0-0-0-0-0-0-0-0-0-0-0-0-0-0-0-0-0-0-0-0-0-0------------

Chorus:
Light distorsion
------------------------------------------------------------
------------------------------------------------------------
---------------7-7-7-7--------------------7-7-7-7-----------
-7-x-x-5-x-x-3-7-7-7-7-(10)-7-x-x-5-x-x-3-7-7-7-7-(10)------
-7-x-x-5-x-x-3-5-5-5-5-(10)-7-x-x-5-x-x-3-5-5-5-5-(10)------
-5-x-x-3-x-x-1----------8---5-x-x-3-x-x-1----------8--------

----------------------------x-x-0--x-x-0-0--0-0-0-0-0-0-0---
----------------------------x-x-0--x-x-0-0--0-0-0-0-0-0-0---
---------------7-7-7-7------x-x-1--x-x-1-1--1-1-1-1-1-1-1---
-7-x-5-5-x-3-3-7-7-7-7-(10)-2-2-2--2-2-2-2--2-2-2-2-2-2-2---
-7-x-5-5-x-3-3-5-5-5-5-(10)-2-2-2--2-2-2-2--2-2-2-2-2-2-2---
-5-x-3-3-x-1-1----------8---0-0-0--0-0-0-0--0-0-0-0-0-0-0---

Verse:
Acoustic guitar chords:

Am G Am E Am G F D (must be played twice)

Electric guitar riff:
Clean electric

------------------------------------------------------------
------------------------------------------------------------
------------------------------------------------------------
------------------------------------------------------------
-/5-5-5-5-3-------------------------------------------------
------------------------------------------------------------

---------------------------(15-15-15\)----------------------
---------------------------(12-12-12\)----------------------
------------------------------------------------------------
------------------------------------------------------------
-/5-5-5-5-3--2-0--------------------------------------------
------------------1-0---------------------------------------

Bridge:
Electric guitar chords:

Fmaj7 Am Fmaj7 E

Electric guitar riff:
Light distorsion

-0-----------0----0-----------0----0-----------0------------
---1-----1-----1----1-----1-----1----1-----1-----1----------
-----2-----2----------2-----2----------2-----2--------------
-------3----------------2----------------3------------------
------------------------------------------------------------
------------------------------------------------------------

-0----------------------------------------------------------
---0--------------------------------------------------------
-----1---1/2-2-2/4-4----------------------------------------
-------2----------------------------------------------------
------------------------------------------------------------
------------------------------------------------------------

Solo:
Electric guitar chords:

same as the chorus

Electric guitar solo:

------------------------------------------------------------
-------8-8-b(10)-r----------8-8-b(10)-r---------------------
-7-h-9-------------9--7-h-9-------------9--7-h-9------------
-------------------------------------------------9-9-b(10)-r
------------------------------------------------------------
------------------------------------------------------------

------------------------------------------------------------
------------------------------------------------------------
-7-h-9------------------------------------------------------
-------9-9-b(10)-r------------------------------------------
--------------------<7>-------------------------------------
------------------------------------------------------------

In the last verse the Am G F and D chords must be played
in power chords:
Electric guitar:
Light distordion

------------------------------------------------------------
------------------------------------------------------------
--------------10--10-10-7--7-7------------------------------
-7-7-7-5--5-5-10--10-10-7--7-7------------------------------
-7-7-7-5--5-5-8---8--8--5--5-5------------------------------
-5-5-5-3--3-3-----------------------------------------------


Outro:
Electric guitar last chord:
Light disorsion

-5----------------------------------------------------------
-5----------------------------------------------------------
-7----------------------------------------------------------
-7----------------------------------------------------------
-5----------------------------------------------------------
-5----------------------------------------------------------

Order:
Intro
Chorus
Verse
Chorus
Verse
Chorus
Bridge
Solo
Verse
Chorus
Outro
00:00 / 00:00
Otros videos de esta canción
Repetir
Otros videos de esta canción
Composición de Brett Gurewitz / Greg Graffin
Colaboración y revisión:
  • Felipe yokoyama
75 vistas
    • ½ Tono
    • A
    • Bb
    • B
    • C
    • Db
    • D
    • Eb
    • E
    • F
    • F#
    • G
    • Ab
  • Agregar a la lista

    0 comentarios

    Ver todos los comentarios

    ¿Lograste tocar?

    0 Tocaron 1 Aún no

    ¡Graba un video tocando Broken y envíanoslo!

    00:00 / 00:00
    OK