Cifra Club

In The Night

Bad Religion

Tab de bajo: Principal
BASSIST - JAY BENTLEY
ALBUM - HOW COULD HELL BE ANY WORSE?

|-------------------|
|-------------------|
|-----------3-------|
|-0--3-4-5----------|

|-------------------|
|-------------------|
|-----------3-------|
|-0--3-4-5----------|

|-------------------|
|-------------------|
|-----------3-------|
|-0--3-4-5----------|


THIS IS THE ONLY BASS LINE I KNOW FROM THE SONG. IT STARTS AT ABOUT 1:50 IN THE SONG. IT 
ON AND OFF BUT AT THE END YOU PLAY IT ALOT. ITS LIKE A BASS SOLO AT THE END.

COMMENT AND RATE.
00:00 / 00:00
Otros videos de esta canción
Repetir
Otros videos de esta canción
Compositor no encontrado.
24 vistas

0 comentarios

Ver todos los comentarios

¿Lograste tocar?

0 Tocaron 0 Aún no

¡Graba un video tocando In The Night y envíanoslo!

00:00 / 00:00
OK