Cifra Club

No Substance

Bad Religion

Cifrado: Principal (guitarra y guitarra eléctrica)
tono: C
Intro:                    

0-0---0-0---0       -----------------------------
3-3---1-1---1       ------------------------5-5-
2-2---2-2---0       2-2----3-3-3--2-2-2--5-5--
0-0---3-3---2       0-0----3-3-3--3-3-3--5-5-- then A x 10
-------------3        ------0-1-1-1--3-3-3--3-3-
--------------         ----------------1-1-1-------

Verse:
------------------------------------
------------------------------------
2-2-------2--------2-2-2-2--------
0-0-------0------0-3-2-0-3-------
------3-0----0-3---------------0-3
-------------------------------3----

Chorus:  (Barre Chords)

D-Bb-Bb-F-F-C-C

Other parts:  (Barre Chords)

D-D-D-D-D-D-C-C-C-C-C-C-Bb-Bb-Bb-Bb-Bb-Bb-F-F-F-F-F-F-A-A-A-A-A-A

By: Scott Freeman    
00:00 / 00:00
Otros videos de esta canción
Repetir
Otros videos de esta canción
Composición de Greg Graffin
Colaboración y revisión:
  • Danilo Briscese
38 vistas
    • ½ Tono
    • A
    • Bb
    • B
    • C
    • Db
    • D
    • Eb
    • E
    • F
    • F#
    • G
    • Ab
  • Agregar a la lista

    0 comentarios

    Ver todos los comentarios

    ¿Lograste tocar?

    0 Tocaron 1 Aún no

    ¡Graba un video tocando No Substance y envíanoslo!

    00:00 / 00:00
    OK