Cifra Club

Punk Rock Song

Bad Religion

Cifrado: Principal (guitarra y guitarra eléctrica)
tono: E
Intro: C#5 E5 B5 G#5 (2x)

Verse: C#5 E5 B5 F#5 C#5 E5 B5 G#5 A5 E5 B5 E5 B5

Chorus: C#5 A5 E5 B5 C#5 A5 E5 G#5 A5 E5 G#5

        C#5 A5 E5 G#5 C#5

E|--------16-16-------16-16-------16-16-------16-16-------16-16-|
B|--14-14-------14-14-------14-14-------14-14-------14-14-------|
G|--------------------------------------------------------------|
D|--------------------------------------------------------------|
A|--------------------------------------------------------------|
E|--------------------------------------------------------------|

E|--------16-16-------16-16-------16-16--17-17-17-17-17-17-17-17-17-|
B|--14-14-------14-14-------13-13-----------------------------------|
G|------------------------------------------------------------------|
D|------------------------------------------------------------------|
A|------------------------------------------------------------------|
E|------------------------------------------------------------------|

E|-16-16-16-16-16-16-14-14-14-14-16-16-17-16-16-16-16-16-|
B|-------------------------------------------------------|
G|-------------------------------------------------------|
D|-------------------------------------------------------|
A|-------------------------------------------------------|
E|-------------------------------------------------------|

E|-------16-16-------16-16-14-16----|
B|-14-14-------14-14-------------14-|
G|----------------------------------|
D|----------------------------------|
A|----------------------------------|
E|----------------------------------|

verse 2: C#5 E5 B5 F#5 C#5 E5 B5 G#5 A5 E5 B5 E5 B5 E5 B5

Chorus: C#5 A5 E5 B5 C#5 A5 E5 G#5 A5 E5 G#5

        C#5 A5 E5 G#5 C#5

E|--------16-16-------16-16-------16-16-------16-16-------16-16-|
B|--14-14-------14-14-------14-14-------14-14-------14-14-------|
G|--------------------------------------------------------------|
D|--------------------------------------------------------------|
A|--------------------------------------------------------------|
E|--------------------------------------------------------------|

E|--------16-16-------16-16-------16-16--17-17-17-17-17-17-17-17-17-|
B|--14-14-------14-14-------13-13-----------------------------------|
G|------------------------------------------------------------------|
D|------------------------------------------------------------------|
A|------------------------------------------------------------------|
E|------------------------------------------------------------------|

E|-16-16-16-16-16-16-14-14-14-14-16-16-17-16-16-16-16-16-|
B|-------------------------------------------------------|
G|-------------------------------------------------------|
D|-------------------------------------------------------|
A|-------------------------------------------------------|
E|-------------------------------------------------------|

E|-------16-16-------16-16-14-16----|
B|-14-14-------14-14-------------14-|
G|----------------------------------|
D|----------------------------------|
A|----------------------------------|
E|----------------------------------|

Solo: C#5 E5 B5 G#5 (4x)

E|-9-9-----9-9-----9-9---9-|
B|-----7p9-----7p9-----9---|
G|-------------------------|
D|-------------------------|
A|-------------------------|
E|-------------------------|

E|--9-9-11-11-11-11-12-12-12-12-11-11-11-11-9-9-9------9--|
B|--------------------------------------------------12----|
G|--------------------------------------------------------|
D|--------------------------------------------------------|
A|--------------------------------------------------------|
E|--------------------------------------------------------|

E|------------------------|
B|---9----------9---------|
G|-----9h11-------9h11----|
D|----------11---------10-|
A|------------------------|
E|------------------------|

E|--------------------------------------------|
B|---------------12---------------------------|
G|-------9-11b13----13r11p9-13r11p9-11b13r11--|
D|--9h11--------------------------------------|
A|--------------------------------------------|
E|--------------------------------------------|

Pos-Chorus: C#5 E5 B5 F#5 C# E5 B5 F#5 C#5 E5 B5 F#5

            C#5 E5 B5 G#5 A5
Composición de Greg Graffin
Colaboración y revisión:
  • Carla Paiva
  • Danilo Briscese
  • Pedro Medina
320 vistas
    • ½ Tono
    • A
    • Bb
    • B
    • C
    • Db
    • D
    • Eb
    • E
    • F
    • F#
    • G
    • Ab
  • Agregar a la lista

    0 comentarios

    Ver todos los comentarios

    ¿Lograste tocar?

    5 Tocaron 0 Aún no

    ¡Graba un video tocando Punk Rock Song y envíanoslo!

    00:00 / 00:00
    Outros vídeos desta música
    Repetir Calidad Automático
    Outros vídeos desta música
    00:00 / 00:00
    Automático
    OK