Cifra Club

Punk Rock Song

Bad Religion

Tab de bajo: Versão 2
intro:

|------------------ 
|-----2222--------- 
|-4-44----22-2----- 
|-------------4-44- (x2)

entra a voz:

|-----------------------------------
|-----2222----4-44-----2222---------
|-4-44----22-2-----4-44----2-22-----
|------------------------------4-44- (x1)

|--------------------
|------2222----------
|-00000----222222222-
|-------------------- (x1)

|-----------------------------------
|-----2222----4-44-----2222---------
|-4-44----22-2-----4-44----2-22-----
|------------------------------4-44- (x1)

|-------------------------------------
|------2222----------222-----222------
|-00000----2222222222---2-222---2-222-
|------------------------------------- (x1)

ai refrão:

|-------------------
|---------222-------
|-4-440-00---2-222--
|------------------- (x2)

|--------------------
|------2222----------
|-00000----222222222-
|-------------------- (x1)

|---------------
|---------2-----
|-4---0-------2-
|---------------

ai, volta para a intro:

|------------------ 
|-----2222--------- 
|-4-44----22-2----- 
|-------------4-44- (x2)

entra novamente a voz, mas encurta o tempo até o refrão:

|-----------------------------------
|-----2222----4-44-----2222---------
|-4-44----22-2-----4-44----2-22-----
|------------------------------4-44- (x1)

|-------------------------------------
|------2222----------222-----222------
|-00000----2222222222---2-222---2-222-
|------------------------------------- (x1)

refrão novamente:

|-------------------
|---------222-------
|-4-440-00---2-222--
|------------------- (x2)

|--------------------
|------2222----------
|-00000----222222222-
|-------------------- (x1)

|---------------
|---------2-----
|-4---0-------2-
|---------------

agora, no solo de guitarra toca-se a intro,

|------------------ 
|-----2222--------- 
|-4-44----22-2----- 
|-------------4-44- (x4)


ai vem um interlúdio:

nessa parte, toca-se esse riff abafado

|-----------------------------------
|-----2222----4-44-----2222---------
|-4-44----22-2-----4-44----2-22-----
|------------------------------4-44- (x2)

(na segunda vez, segura no G# até entrar esse riff):

|-------------------------------------
|------2222----------222-----222------
|-00000----2222222222---2-222---2-222-
|------------------------------------- (x1)

refrão denovo:

|-------------------
|---------222-------
|-4-440-00---2-222--
|------------------- (x2)

|--------------------
|------2222----------
|-00000----222222222-
|-------------------- (x1)

|---------------
|---------2-----
|-4---0-------2-
|---------------

depois daí volta pra esse riff, que é quando o Jay canta:

|-------------------------------------
|------2222----------222-----222------
|-00000----2222222222---2-222---2-222-
|------------------------------------- (x2)

refrão final

refrão denovo:

|-------------------
|---------222-------
|-4-440-00---2-222--
|------------------- (x2)

|--------------------
|------2222----------
|-00000----222222222-
|-------------------- (x1)

|---------------
|---------2-----
|-4---0-------2-
|---------------

é basicamente isso, é bem fácil, basicamente 4 riffs só, mas é preciso ficar atento sempre a maneira como ele é tocado... abafando etc...
00:00 / 00:00
Otros videos de esta canción
Repetir
Otros videos de esta canción
Composición de Greg Graffin
Colaboración y revisión:
  • fernando athayde
16 vistas

0 comentarios

Ver todos los comentarios

¿Lograste tocar?

0 Tocaron 0 Aún no

¡Graba un video tocando Punk Rock Song y envíanoslo!

00:00 / 00:00
OK