Cifra Club

Sorrow

Bad Religion

Cifrado: Principal (guitarra y guitarra eléctrica)
tono: D
Introdução:

(sem distorção) uma guitarra faz:
E|-------------------------------------------------------
B|-------------------------------------------------------
G|---12~~------------------------------------------------
D|---12~~------------------------------------------------
A|---12~~------------------------------------------------
E|---12~~------------------------------------------------

(com distorção) a outra guitarra faz:
E|--------------------------------------------------------
B|----------3->-------------------------------------------
G|----------2->-------------------------------------------
D|------2->-----------------------------------------------
A|-2->--3->----2->----------------------------------------
E|-0->---------3->----------------------------------------

"Father can you hear me?"
E|--------------------------------------------------------
B|---------------------------------3->--------------------
G|---------------------------------2->--------------------
D|-----------------------2->------------------------------
A|-2->-------------------3->---2->------------------------
E|-3->-------------------------0->------------------------

"How have I let you down?"
E|--------------------------------------------------------
B|--3->---------------------------------------------------
G|--2->---------------------------------------------------
D|--------------------------------------------------------
A|--------------------------------------------------------
E|--------------------------------------------------------

"I cursed the day.."
E|--------------------------------------------------------
B|-------------3->----------------------------------------
G|-------------2->----------------------------------------
D|--------2->---------------------------------------------
A|--2->---3->-------2->-----------------------------------
E|--3->-------------0->-----------------------------------

"And all the sorrow.."
E|--------------------------------------------------------
B|------------3->-----------------------------------------
G|------------2->-----------------------------------------
D|-------2->----------------------------------------------
A|--2->--3->------2->----A OUTRA GUITARRA ENTRA AKI-------
E|--0->-----------3->----------------3-2------------------

A GUITARRA QUE FAZ O SOLO TOCA COM ACORDES (COMO A INTRODUÇAO)
E A OUTRA GUITARRA FAZ BASE EM POWERCHORD.

"Let me take you..."
E|--------------------------------------------------------
B|--------------------------------------------------------
G|---5-7-----------5-9-7---------5-7-9-------9-5-7--------
D|-2-5-7-5-------5-5-9-7->-----5-5-7-9->-----9-5-7-5------
A|-2-3-5-5->-----5-3-7-5-------5-3-5-7-------7-3-5-5------
E|-0-----3-------3-------------3-------------------3---3-2

"Will you guild me now..."
E|--------------------------------------------------------
B|--------------------------------------------------------
G|---5-7-----------5-9-7---------5-7-9-------9-5-7--------
D|-2-5-7-5-------5-5-9-7->-----5-5-7-9->-----9-5-7--------
A|-2-3-5-5->-----5-3-7-5-------5-3-5-7-------7-3-5--------
E|-0-----3-------3-------------3-------------------3-2----

Refrão:

"There will be..."
E|---------------------------------------------------------
B|---------------------------------------------------------
G|----5-----7-------5-----7-------5--------7---------------
D|-2--5--5--7----2--5--5--7----2--5--5--2--7->-----5------
A|-2--3--5--5----2--3--5--5----2--3--5--2--5-------5->----
E|-0-----3---2^--0-----3---2^--0-----3--0----------3------

Bem depois do refrão tem outra parte igual as outras:

"When all the soldiers.."
E|--------------------------------------------------------
B|--------------------------------------------------------
G|---5-7-----------5-9-7---------5-7-9-------9-5-7--------
D|-2-5-7-5-------5-5-9-7->-----5-5-7-9->-----9-5-7--------
A|-2-3-5-5->-----5-3-7-5-------5-3-5-7-------7-3-5--------
E|-0-----3-------3-------------3-------------------3-2----

   SOLO:
E|----------------------------------------------------------------------------------------------------|
B|--12-----------12-----------------------------------------------------------------------------------|
G|--14b(16)~~----14b(16)14h15p14-12----------12h14-12~~--------12-------------------------------------|
D|----------------------------------14p12h14-----------12-12-14---12-12h14--12-14-14-12h14-12h14------|
A|----------------------------------------------------------------------------------------------------|
E|----------------------------------------------------------------------------------------------------|

E|----------------------------------------------------------------------------------------------------|
B|----------------------------------------12-13-15-13-12-12-13-12-------------------------------------|
G|-------------------12---12h14-12---12-14-----------------------14-12-14-12-14b(16)~~~---------------|
D|-12h14-12----12-14----14----------------------------------------------------------------------------|
A|----------12----------------------------------------------------------------------------------------|
E|----------------------------------------------------------------------------------------------------|

E|----------12----------------------------------------------------------------------------------------|
B|--------12--14-12-----------------------------------------------------------------------------------|
G|-14b(16)---------14-12-14-14b(16)-12-14-12~~--------------------------------------------------------|
D|----------------------------------------------------------------------------------------------------|
A|----------------------------------------------------------------------------------------------------|
E|----------------------------------------------------------------------------------------------------|
 
ULTIMO ACORDE DA MUSICA:                    

E|--7~~---------------------------------------------------
B|--8~~---------------------------------------------------
G|--9~~---------------------------------------------------
D|--9~~---------------------------------------------------
A|--------------------------------------------------------
E|--------------------------------------------------------

LETRA DA MUSICA:

Father, can you hear me? 
How have I let you down? 
I curse the day that I was born,
And all the sorrow in the world...

Let me take you to the herding ground,
Where all good men are trampled down,
Just to settle a bet that could not be won,
Between a prideful father and his son.

Well you guard me now for I can’t see,
A reason for this suffering and this long misery.
What if every living soul could be upright and strong? 
Well, then I do imagine there will be
Sorrow.
Yeah there will be
Sorrow .
And there will be
Sorrow, no more.

When all soldiers lay their weapons down,
Or when all kings and all queens relinquish their crown,
Or when the only true messiah rescues us from ourselves...
It’s easy to imagine there will be
Sorrow.
Yeah there will be
Sorrow .
And there will be
Sorrow, no more.

There will be
Sorrow.
Yeah there will be
Sorrow .
And there will be
Sorrow, no more.
Composición de Brett Gurewitz / Greg Graffin
650 vistas
    • ½ Tono
    • A
    • Bb
    • B
    • C
    • Db
    • D
    • Eb
    • E
    • F
    • F#
    • G
    • Ab
  • Agregar a la lista

    0 comentarios

    Ver todos los comentarios

    ¿Lograste tocar?

    1 Tocaron 0 Aún no

    ¡Graba un video tocando Sorrow y envíanoslo!

    00:00 / 00:00
    Outros vídeos desta música
    Repetir Calidad Automático
    Outros vídeos desta música
    00:00 / 00:00
    Automático
    OK