Cifra Club

Supersonic

Bad Religion

Cifrado: Principal (guitarra y guitarra eléctrica)
tono: G
Intro
e|-------------------------------------------------------------------------|
B|-------------------------------------------------------------------------|
G|-------------------------------------------------------------------------|
D|--9-9-9-9--/--12--\--9--/--12--/--14--\--12--/--14--/--16--\--14--\--12--|
A|--7-7-7-7--/--10--\--7--/--10--/--12--\--10--/--12--/--14--\--12--\--10--|
E|-------------------------------------------------------------------------|

e|-----------------------------------------------------------|
B|-----------------------------------------------------------|
G|-----------------------------------------------------------|
D|--9-9-9-9--/--12--\--9--/--12--/--16--\--14--\--12---------|
A|--7-7-7-7--/--10--\--7--/--10--/--14--\--12--\--10--9~~~~--|
E|----------------------------------------------------7~~~~--|

Verse
e|----------------------------------------------|
B|----------------------------------------------|
G|----------------------------------------------|
D|--9-9-9-9--/--12--\--9------------------------|
A|--7-7-7-7--/--10--\--7--10-10-10-10--9-9-9-9--|
E|-------------------------8--8--8--8--7-7-7-7--|

Chorus
e|--------------------------------------|
B|--------------------------------------|
G|--------------------------------------|
D|--5-5-5-5--7-7-7-7--------------------|
A|--3-3-3-3--5-5-5-5--5-5-5-5--4-4-4-4--|
E|--------------------3-3-3-3--2-2-2-2--|

Quasi-Solo
e|--12^-12^-12^-12^-12^-12^-12^-12^--\--11--|
B|------------------------------------------|
G|------------------------------------------|
D|------------------------------------------|
A|------------------------------------------|
E|------------------------------------------|

Bridge
e|------------------------------------------------------|
B|------------------------------------------------------|
G|------------------------------------------------------|
D|--9-9-9-9-9-9--7-7-7-7-7-7---------------4-4-4-4-4-4--|
A|--7-7-7-7-7-7--5-5-5-5-5-5--5-5-5-5-5-5--2-2-2-2-2-2--|
E|----------------------------3-3-3-3-3-3---------------|

e|-----------------------------------------------------------|
B|-----------------------------------------------------------|
G|-----------------------------------------------------------|
D|--9-9-9-9-9-9--7-7-7-7-7-7--5-5-5-5-5-5--7-7-7-7--8-8-8-8--|
A|--7-7-7-7-7-7--5-5-5-5-5-5--3-3-3-3-3-3--5-5-5-5--6-6-6-6--|
E|-----------------------------------------------------------|

Outro
e|-----------------------------------------------------------------------------------|
B|-----------------------------------------------------------------------------------|
G|-----------------------------------------------------------------------------------|
D|--9-9-9-9--/--12--\--9--/--12--/--14--\--12--/--14--/--16--\--14--\--12--\--9\\\\--|
A|--7-7-7-7--/--10--\--7--/--10--/--12--\--10--/--12--/--14--\--12--\--10--\--7\\\\--|
E|-----------------------------------------------------------------------------------|
00:00 / 00:00
Otros videos de esta canción
Repetir
Otros videos de esta canción
Composición de Brett Gurewitz / Greg Graffin
Colaboración y revisión:
  • Norberto Wildson
88 vistas
    • ½ Tono
    • A
    • Bb
    • B
    • C
    • Db
    • D
    • Eb
    • E
    • F
    • F#
    • G
    • Ab
  • Agregar a la lista

    0 comentarios

    Ver todos los comentarios

    ¿Lograste tocar?

    0 Tocaron 0 Aún no

    ¡Graba un video tocando Supersonic y envíanoslo!

    00:00 / 00:00
    OK