Cifra Club

Blistered Heart

Badly Drawn Boy

Cifrado: Principal (guitarra y guitarra eléctrica)
Selo Cifra Club: esta cifra foi revisada para atender aos critérios oficiais da nossa Equipe de Qualidade.
tono: C
E|E|---------------------------------------------------------------------||
                  BLISTEDD  HEART : Badly Drawn Boy
E|E|---------------------------------------------------------------------||
Tabbed by: lifer
Email:

Tuning: standard

E|--------------------------------------------------------------------|
B|---0---------1-----3--3---------1-----------------------------------|
G|-------2---2-----2--------0---0-----0---0---------------------------|
D|-----2---2-----2--------2---2-----2---2-----------------------------|
A|---0------------------3---------------------------------------------|
E|--------------------------------------------------------------------|

E|----------------------------------------0--------------------------|
B|---0---------1-----3--3---------1---3------------------------------|
G|-------2---2-----2--------0---0---0---0---0------------------------|
D|-----2---2-----2--------2---2--------------------------------------|
A|---0------------------3--------------------------------------------|
E|-------------------------------------------------------------------|

E|---1---------1---0--------1---------1---0--------------------------|
B|-------3---3---------3--------1---1---------3----------------------|
G|-----2---2-----2---2---2----2---2-----2---2---2--------------------|
D|---0----------------------3----------------------------------------|
A|-------------------------------------------------------------------|
E|-------------------------------------------------------------------|

E|-------------------------------------------------------------------|
B|---1---------1---0--------1---------1---0--------------------------|
G|-------2---2---------2--------2---2---------2----------------------|
D|-----2---2-----2---2---2----3---3-----3---3---3--------------------|
A|---0----------------------3----------------------------------------|
E|-------------------------------------------------------------------|

E|-------------------------------------------------------------------|
B|---0---------1---0-------------------------------------------------|
G|-------2---2---------2---------------------------------------------|
D|-----2---2-----2---2---2-------------------------------------------|
A|---0---------------------------------------------------------------|
E|-------------------------------------------------------------------|

E|---------0---------------------------------------------------------|
B|---1--------3-----0--1-----0--------0------------------------------|
G|-------0--------0--------2----2---2--------------------------------|
D|-----2--------0--------2--------3----------------------------------|
A|---3--------2--------0--------3------------------------------------|
E|-------------------------------------------------------------------|

E|-------------------------------------------------------------------|
B|---1-----0--------0------------------------------------------------|
G|-------2----2---2--------------------------------------------------|
D|-----2--------3----------------------------------------------------|
A|---0--------3------------------------------------------------------|
E|-------------------------------------------------------------------|

E|---------0---------------------------------------------------------|
B|---1--------3------------------------------------------------------|
G|-------2-----------------------------------------------------------|
D|-----2-------------------------------------------------------------|
A|---0--------2------------------------------------------------------|
E|-------------------------------------------------------------------|

E|-------------------------------------------------------------------|
B|---0---------1-----------------------------------------------------|
G|-------2---2-----2---2---------------------------------------------|
D|-----2---2-----2---2-----------------------------------------------|
A|---0---------------------------------------------------------------|
E|-------------------------------------------------------------------|

E|---------------0---------------------------------------------------|
B|---0---------1-----------------------------------------------------|
G|-------2---2-------2-----------------------------------------------|
D|-----2---2-------2-------------------------------------------------|
A|---0---------------------------------------------------------------|
E|-------------------------------------------------------------------|

E|---------------0---------------------------------------------------|
B|---0---------1---1-------------------------------------------------|
G|-------2---2-------2-----------------------------------------------|
D|-----2---2-----------2---------------------------------------------|
A|---0---------------------------------------------------------------|
E|-------------------------------------------------------------------|
Otros videos de esta canción
    0 exhibiciones
      • ½ Tono
      • A
      • Bb
      • B
      • C
      • Db
      • D
      • Eb
      • E
      • F
      • F#
      • G
      • Ab
    • Agregar a la lista

    Afinação da cifra

    Afinador online

      Ops (: Contenido disponible solo en portugués.
      OK