Cifra Club

How

Badly Drawn Boy

Cifrado: Principal (guitarra y guitarra eléctrica)
Selo Cifra Club: esta cifra foi revisada para atender aos critérios oficiais da nossa Equipe de Qualidade.
tono: E
Intro:

E|------------------------------------------------------|
B|-----------0--------------0---------2-----2-----4--0--|
G|--------2-----2--------1-----1------2-----2-----4--2--|
D|-----2--------------2-----------x3-----------------2--| x3
A|--0------------------------------------------------0--|
E|-----------------0------------------2--2-----2--4-----|

"What if..."                        "...After all this..." 

E|-----------------------------------------------0--2--4--|
B|-----------0--------------0--------------0-----0--2--4--|
G|--------2-----2--------2-----2--------2-----2--1--2--4--|
D|-----2--------------2--------------2-----------2--4--6--|
A|--0--------------0--------------0--------------2--4--6--|
E|-----------------------------------------------0--2--4--|


Here, instead of putting the strumming patterns, I've put a chord for every beat, so when a chord 
is repeated, it's played for 2 beats:

E|--4--2--0--0--2--4--0--0--2--4--4--0--4--4--|
B|--5--4--2--0--2--4--2--2--2--4--5--2--4--4--|
G|--6--4--2--1--2--4--2--2--2--4--6--2--4--4--|
D|--6--4--2--2--4--6--2--2--4--6--6--2--6--6--|
A|--4--2--0--2--4--6--0--0--4--6--4--0--6--6--|
E|-----------0--2--4--------2--4--------4--4--|

"...Staaay..."

E|--4--2--0--2--4--2--0--2--4--|
B|--5--4--2--2--4--4--2--2--4--|
G|--6--4--2--2--4--4--2--2--4--|
D|--6--4--2--4--6--4--2--4--6--| x2
A|--4--2--0--4--6--2--0--4--6--|
E|-----------2--4--------2--4--|

"How can I be sure, again, once more?.."

Again, for strumming patterns, listen to song:

E|-----5-----4--|
B|-----5-----4--|
G|-----6-----4--|
D|-----7-----6--| x4
A|-----7-----6--|
E|--5--5--4--4--|

Each chord here is played staccato the amount of times I've put after each chord:

E|--4------4------2------4------5------0------2------|
B|--4------5------4------4------5------0------2------|
G|--4------6------4------4------6------1------2------|
D|--6--x4--6--x4--4--x8--6--x4--7--x4--2--x6--4--x2--| x2
A|--6------4------2------6------7------2------4------|
E|--4--------------------4------5------0------2------|

"How can I give you the answers you need..."

Not staccato anymore, back to same rhythm as before:

E|--4--2--0--2--|
B|--4--4--2--2--|
G|--4--4--2--2--|
D|--6--4--2--4--|
A|--6--2--0--4--|
E|--4--------2--|

E|--4--2--0--2--4--2--0--2--4--|
B|--5--4--2--2--4--4--2--2--4--|
G|--6--4--2--2--4--4--2--2--4--|
D|--6--4--2--4--6--4--2--4--6--|
A|--4--2--0--4--6--2--0--4--6--|
E|-----------2--4--------2--4--|

"How can I be sure, again, once more?.."

E|------------------------------------------------------|
B|-----------0--------------0---------2-----2-----4--0--|
G|--------2-----2--------1-----1------2-----2-----4--2--|
D|-----2--------------2-----------x3-----------------2--| x2
A|--0------------------------------------------------0--|
E|-----------------0------------------2--2-----2--4-----|

"I don't care, I don't mind..."

E|-----------------------------------------------0--2--4--|
B|-----------0--------------0--------------0-----0--2--4--|
G|--------2-----2--------2-----2--------2-----2--1--2--4--|
D|-----2--------------2--------------2-----------2--4--6--|
A|--0--------------0--------------0--------------2--4--6--|
E|-----------------------------------------------0--2--4--|

                                    "When you come back I'll...

E|--4--2--0--0--2--4--0--0--2--4--4--0--4--4--|
B|--5--4--2--0--2--4--2--2--2--4--5--2--4--4--|
G|--6--4--2--1--2--4--2--2--2--4--6--2--4--4--|
D|--6--4--2--2--4--6--2--2--4--6--6--2--6--6--|
A|--4--2--0--2--4--6--0--0--4--6--4--0--6--6--|
E|-----------0--2--4--------2--4--------4--4--|

"...gooooo..."         "...Another mouth to feed..."

E|-----5-----4--|
B|-----5-----4--|
G|-----6-----4--|
D|-----7-----6--| x4
A|-----7-----6--|
E|--5--5--4--4--|

E|--4------4------2------4------5------0------2------|
B|--4------5------4------4------5------0------2------|
G|--4------6------4------4------6------1------2------|
D|--6--x4--6--x4--4--x8--6--x4--7--x4--2--x6--4--x2--| x2
A|--6------4------2------6------7------2------4------|
E|--4--------------------4------5------0------2------|

"How can I give you the answers you need..."
 
E|--2--4--2--0--2--|
B|--2--4--4--2--2--|
G|--2--4--4--2--2--|
D|--4--6--4--2--4--|
A|--4--6--2--0--4--|
E|--2--4--------2--|

E|--4--2--0--2--4--2--0--2--4--2--0--|
B|--5--4--2--2--4--4--2--2--4--4--0--|
G|--6--4--2--2--4--4--2--2--4--4--2--|
D|--6--4--2--4--6--4--2--4--6--4--2--|
A|--4--2--0--4--6--2--0--4--6--2--0--|
E|-----------2--4--------2--4--------|

"How can I find time to be with you again?.."

E|--0--2--4--4--2--0--0--2--4--0--0--2--4--4--0--4--4--|
B|--0--2--4--5--4--2--0--2--4--2--2--2--4--5--2--4--4--|
G|--1--2--4--6--4--2--1--2--4--2--2--2--4--6--2--4--4--|
D|--2--4--6--6--4--2--2--4--6--2--2--4--6--6--2--6--6--|
A|--2--4--6--4--2--0--2--4--6--0--0--4--6--4--0--6--6--|
E|--0--2--4-----------0--2--4--------2--4--------4--4--|

"When you come back I'll goooo" "...Another mouth to feed"

E|--2--4--2--0--| |
B|--2--4--4--2--| |
G|--2--4--4--2--| |
D|--4--6--4--2--| |
A|--4--6--2--0--| |
E|--2--4--------| |
Otros videos de esta canción
    3 exhibiciones
      • ½ Tono
      • A
      • Bb
      • B
      • C
      • Db
      • D
      • Eb
      • E
      • F
      • F#
      • G
      • Ab
    • Agregar a la lista

    Afinação da cifra

    Afinador online

      Ops (: Contenido disponible solo en portugués.
      OK