Cifra Club

I Was Wrong

Badly Drawn Boy

Cifrado: Principal (guitarra y guitarra eléctrica)
Selo Cifra Club: esta cifra foi revisada para atender aos critérios oficiais da nossa Equipe de Qualidade.
tono: D
E|-------|-------|-------|-------|-------|-------|-------|--2-------|
B|3---3--| 3---3--|3---3--|3---3--|3---3--|3---3--|3---3--|2---5-3-2-|
G|-4---4-|-4---4-|-4---4-|-4---4-|-4---4-|-4---4-|-4---4-| 2---------|
D|--4---4|--4---4|--4---4|--4---4|--4---4|--4---4|--4---4| 2---------|
A|2--2---| 0--0---|-------|-------|-------|-------|-------|0---------|
E|-------|-------| 3--3---|2--2---|0--0---|2--2---|3--3---|----------|

[Verse 2]

E|-------|-------|-------|-------|-------|-------|-------|
B|3---3--| 2---2--|3---3--|2---2--|0---0--|2---2--|3---3--|
G|-4---4-|-2---2-|-4---4-|-2---2-|-0---0-|-2---2-|-4---4-|
D|--4---4|--2---2|--4---4|--4---4|--2---2|--4---4|--4---4|
A|2--2---| 0--0---|-------|-------|-------|-------|-------|
E|-------|-------| 3--3---|2--2---|0--0---|2--2---|3--3---|

[Outro]

E|-------|-------|-------|-------|
B|2---2--| 2---2--|2---2--|2---2--|
G|-2---2-|-0---0-|-2---2-|-0---0-|
D|--2---2|--2---2|--2---2|--2---2|
A|0--0---| 0--0---|0--0---|0--0---|
E|-------|-------|-------|-------|

*Alternative ways of playing last bar of intro/verse 1:

E|--2-0----| e|---------| This is what you hear played
B|2----3-2-| OR        B|2-3-2-0--| by the main acoustic guitar
G|2--------| G|2------2-| in the studio recording
D|2--------| D|2--------|
A|0--------| A|0--------|
E|---------|                   E|---------|
Otros videos de esta canción
    4 exhibiciones
      • ½ Tono
      • A
      • Bb
      • B
      • C
      • Db
      • D
      • Eb
      • E
      • F
      • F#
      • G
      • Ab
    • Agregar a la lista

    Afinação da cifra

    Afinador online

      Ops (: Contenido disponible solo en portugués.
      OK